Cifras e Tablaturas
Iron Maiden

The trooper (solo )

Iron Maiden

Cifras Cancelar Versão de Impressão

Iron Maiden - The trooper (solo )

  		efectos: 
h:hammer on 
b:bend 
 
solo de dave murray: 
 
1.-------5-8-5-8-5-8-5-8-5-8-5-8---------------------------- 
2.--5h8-----------------------------5-8-5-8-5-8-5-8-5-8-5-8- 
3.---------------------------------------------------------- 
4.---------------------------------------------------------- 
5.---------------------------------------------------------- 
6.---------------------------------------------------------- 
 
1.---------------------------- 
2.---------------------------- 
3.-7b----7-6-5---6-5---------- 
4.-------------7-------------- 
5.--------------------6-5----- 
6.------------------------8-5- 
 
1.------------------------------------------ 
2.-----------------10-12-10-12-10-12-10-12-- 
3.-9-11-9-11-9-11--------------------------- 
4.------------------------------------------ 
5.------------------------------------------ 
6.------------------------------------------ 
 
1.---------------------------------------- 
2.---------------------10-12-10-12-10-12-- 
3.-9-11-9-11-9-11-9-11-------------------- 
4.---------------------------------------- 
5.---------------------------------------- 
6.---------------------------------------- 
 
1.---------------------------------------12-15 
2.-13-11-13-11-----15b-15b-15b-13-15--15------ 
3.--------------14---------------------------- 
4.-------------------------------------------- 
5.-------------------------------------------- 
6.-------------------------------------------- 
 
1.-15-12-15-12-15-12--------------------- 
2.--------------------15-13-15-13-15-13-- 
3.--------------------------------------- 
4.--------------------------------------- 
5.--------------------------------------- 
6.--------------------------------------- 
 
1.----10-12-10-12--15b------ 
2.-10-------------------13-- 
3.-------------------------- 
4.-------------------------- 
5.-------------------------- 
6.-------------------------- 
 
1.-------------------20b-17--------20b-20-19-17---------------- 
2.------------20b-17--------20b-17--------------20-19b-17------ 
3.-17-19b--17----------------------------------------------19b- 
4.------------------------------------------------------------- 
5.------------------------------------------------------------- 
6.------------------------------------------------------------- 
 
 
 

     
fixar na tela
enviado porenviado por: Corral Urias
cifra enviadaCorrigida por: sem correções
logo top cifrasComente
ico música do artistaMúsicas deste artista
ico curtiuCurtiu?
ico destaqueDestaque
r7
Petaxxon Comunicação Online

Cifras.com.br - Melhor e mais completo site de cifras e tablaturas do Brasil Mais de 1 milhão de acordes de músicas cadastradas desde 2003
As informações contidas no nosso site são colaborações de seus usuários e podem conter erros, sendo assim, não nos responsabilizamos sobre nenhuma destas.

close
menos
mais
close
Cor dos acordes:

Cor da letra:

close
Alinhar acordes a direita Alinhar acordes a esquerda Alinhar acordes em baixo Alinhar acordes no topo
close
  Mostrar todos os acordes Esconder acordes muito fáceis Esconder acordes fáceis Esconder acordes intermediários
redimensionar
glossário