» Cifras.com.br » Letras de músicas » Notícias » TV Cifras » Guitar Pro » Gospel
Logo Cifras.com.br

Início » Gospel » Jamily »

Sou Praiero

Jamily

Jamily
Sou Praiero

Escute esta músicas

Tom

Formatação

colunas A+ A- cores

Instrumento

cifras tablaturaver outros instrumentos

Nível

Sem Nível

Nível: Sem Nível

Transcrição

enviada por lessinhas


  G||-------------------|------------------|-------------------| 
D||-------------------|------------------|-------------------| 
A||-------------------|------------------|-------------------| 
E||-------------------|------------------|-------------------| 
B||--2----------------|------------------|--2----------------| 
                                                                                
--------------------------|----------------4--------|-------------------------| 
--------------------------|-------------------------|----------------6--------| 
--------------------------|-------------2-----2--4--|----4--4--6--7-----7--6--| 
--------------------------|--5----0--5--------------|-------------------------| 
--2--2--2--2--2--2--2--2--|-------------------------|-------------------------| 
                                                           
----------------4--------|-------------------------|----------------4--------| 
-------------------------|-------------------6-----|-------------------------| 
-------------2-----2--4--|----4--6--6--7--7-----7--|-------------2-----2--4--| 
--5----0--5--------------|-------------------------|--5----0--5--------------| 
-------------------------|-------------------------|-------------------------| 
                                                                              
------------------------|----------------4--------|-------------------------| 
------------------------|-------------------------|-------------------------| 
------4-----4-4---2-----|-------------2-----2--4--|------4-----2-2-2-----2--| 
----------4----------4--|--5----0--5--------------|----------4--------4-----| 
------------------------|-------------------------|-------------------------| 
                                                                              
-------------------------|------------------------|-------------------------| 
-------------------------|------------------------|-------------------------| 
--4----4-----2-----2--4--|------------------------|-------------------------| 
----------4------4-------|--4----4-----4-------4--|--5----5--0--2---0-5--7--| 
-------------------------|-----------4------4-----|-------------------------| 
                                                          
-----------------------|--------------------------|-------------------------| 
-----------------------|--------------------------|-------------------------| 
--7----7-----7----6----|--4---4----2--4---4-2--4--|-------------------------| 
-----------7-----------|--------4-----------------|--4---4----2--4----2--4--| 
-----------------------|--------------------------|--------4----------------| 
                                                          
--------------------------|-----------------------|-----------------------| 
--------------------------|-----------------------|--------------------6--| 
-----------------4--7--4--|-----------------------|-----------------6-----| 
--5---5-------5-----------|--7--7--7--7--7--------|--2------4--4----------| 
--------5--7--------------|-----------------------|-----------------------| 
                                                         
-----------------------|-----------------------|------------------------| 
---------------6-------|--------------------6--|------------------------| 
--4------6--7-----7----|-----------------6-----|--4---------4-----2--4--| 
-----------------------|--2------4--4----------|---------4------4-------| 
-----------------------|-----------------------|------------------------| 
                                                                            
-------------------------|--------4-----------4-----|---------------------| 
--------4-------------4--|------4----4------4----4--|--2---------2--------| 
------4-----4------4-----|--2-----------2-----------|---------2-----------| 
--2-----------2----------|--------------------------|---------------------| 
-------------------------|--------------------------|---------------------| 
                                                           
----------------------|----------------------|----------------6-----6--| 
----------------4-----|----------------6-----|-------------------------| 
----------------------|----------------------|--4----------4-----4-----| 
--2----2----2-----2---|--4----4----4-----4---|-------4--7--------------| 
----------------------|----------------------|-------------------------| 
                                                                  
--4--4--4--4--4--4--4--4--|-----------------------|----------------6-6-------| 
--------------------------|-----------------------|--------1-----------------| 
--------------------------|---------4--2----2-----|-----2-----4--------4-----| 
--------------------------|--5-----------------5--|--4--------------------7--| 
--------------------------|-----------------------|--------------------------| 
                                                              
------------------------|-----------------------|-----------------------| 
------------------------|--2-----1--------------|-----------------------| 
----------4--2-------4--|------2------4----2----|---------4--2----2-----| 
--5----5----------5-----|-----------------------|--5-----------------5--| 
------------------------|-----------------------|-----------------------| 
                                                                              
-------------------------|-----------------------|--------------------------| 
--------1----------1-----|-----------------------|--------------------------| 
-----2-----4----2-----4--|---------4--2----2--4--|--7-----7-----7-----7-----| 
--4----------------------|--5--------------------|-----0-----0-----0-----0--| 
-------------------------|-----------------------|--------------------------| 
                                                                   
--------------------------|-----------------------|----------------6-6-------| 
--------------------------|-----------------------|--------1-----------------| 
--7-----7-----7--7--7--7--|---------4--2----2-----|-----2-----4--------4-----| 
-----0-----0--------------|--5-----------------5--|--4--------------------7--| 
--------------------------|-----------------------|--------------------------| 
                                                                          
------------------------|-----------------------|-----------------------| 
------------------------|--2-----1--------------|-----------------------| 
----------4--2-------4--|------2------4----2----|---------4--2----2-----| 
--5----5----------5-----|-----------------------|--5-----------------5--| 
------------------------|-----------------------|-----------------------| 
                                                                              
-------------------------|-----------------------|--------------------------| 
--------1----------1-----|-----------------------|--------------------------| 
-----2-----4----2-----4--|---------4--2----2--4--|--7-----7-----7-----7-----| 
--4----------------------|--5--------------------|-----0-----0-----0-----0--| 
-------------------------|-----------------------|--------------------------| 
                                                                              
-------------------------|------------------------|-------------------------| 
-------------------------|------------------------|-------------------------| 
--4----4-----2-----2--4--|------------------------|-------------------------| 
----------4------4-------|--4----4-----4-------4--|--5----5--0--2---0-5--7--| 
-------------------------|-----------4------4-----|-------------------------| 
                                                                              
-----------------------|--------------------------|-------------------------| 
-----------------------|--------------------------|-------------------------| 
--7----7-----7----6----|--4---4----2--4---4-2--4--|-------------------------| 
-----------7-----------|--------4-----------------|--4---4----2--4----2--4--| 
-----------------------|--------------------------|--------4----------------| 
                                                                           
--------------------------|-----------------------|-----------------------| 
--------------------------|-----------------------|--------------------6--| 
-----------------4--7--4--|-----------------------|-----------------6-----| 
--5---5-------5-----------|--7--7--7--7--7--------|--2------4--4----------| 
--------5--7--------------|-----------------------|-----------------------| 
                                                                 
-----------------------|-----------------------|------------------------| 
---------------6-------|--------------------6--|------------------------| 
--4------6--7-----7----|-----------------6-----|--4---------4-----2--4--| 
-----------------------|--2------4--4----------|---------4------4-------| 
-----------------------|-----------------------|------------------------| 
                                                                            
-------------------------|--------4-----------4-----|---------------------| 
--------4-------------4--|------4----4------4----4--|--2---------2--------| 
------4-----4------4-----|--2-----------2-----------|---------2-----------| 
--2-----------2----------|--------------------------|---------------------| 
-------------------------|--------------------------|---------------------| 
                                                                         
----------------------|----------------------|----------------6-----6--| 
----------------4-----|----------------6-----|-------------------------| 
----------------------|----------------------|--4----------4-----4-----| 
--2----2----2-----2---|--4----4----4-----4---|-------4--7--------------| 
----------------------|----------------------|-------------------------| 
                                                                  
--4--4--4--4--4--4--4--4--|-----------------------|----------------6-6-------| 
--------------------------|-----------------------|--------1-----------------| 
--------------------------|---------4--2----2-----|-----2-----4--------4-----| 
--------------------------|--5-----------------5--|--4--------------------7--| 
--------------------------|-----------------------|--------------------------| 
                                                                          
------------------------|-----------------------|-----------------------| 
------------------------|--2-----1--------------|-----------------------| 
----------4--2-------4--|------2------4----2----|---------4--2----2-----| 
--5----5----------5-----|-----------------------|--5-----------------5--| 
------------------------|-----------------------|-----------------------| 
                                                                   
-------------------------|-----------------------|--------------------------| 
--------1----------1-----|-----------------------|--------------------------| 
-----2-----4----2-----4--|---------4--2----2--4--|--7-----7-----7-----7-----| 
--4----------------------|--5--------------------|-----0-----0-----0-----0--| 
-------------------------|-----------------------|-------------------------- 
                                                                               
--------------------------|-----------------------|----------------6-6-------| 
--------------------------|-----------------------|--------1-----------------| 
--7-----7-----7--7--7--7--|---------4--2----2-----|-----2-----4--------4-----| 
-----0-----0--------------|--5-----------------5--|--4--------------------7--| 
--------------------------|-----------------------|--------------------------| 
                                                                          
------------------------|-----------------------|-----------------------| 
------------------------|--2-----1--------------|-----------------------| 
----------4--2-------4--|------2------4----2----|---------4--2----2-----| 
--5----5----------5-----|-----------------------|--5-----------------5--| 
------------------------|-----------------------|-----------------------| 
                                                                     
-------------------------|-----------------------|--------------------------| 
--------1----------1-----|-----------------------|--------------------------| 
-----2-----4----2-----4--|---------4--2----2--4--|--7-----7-----7-----7-----| 
--4----------------------|--5--------------------|-----0-----0-----0-----0--| 
-------------------------|-----------------------|--------------------------| 
                                                                             
-------------------------|------------------------|-------------------------| 
-------------------------|------------------------|-------------------------| 
--4----4-----2-----2--4--|------------------------|-------------------------| 
----------4------4-------|--4----4-----4-------4--|--5----5--0--2---0-5--7--| 
-------------------------|-----------4------4-----|-------------------------| 
                                                                  
-----------------------|--------------------------|-------------------------| 
-----------------------|--------------------------|-------------------------| 
--7----7-----7----6----|--4---4----2--4---4-2--4--|-------------------------| 
-----------7-----------|--------4-----------------|--4---4----2--4----2--4--| 
-----------------------|--------------------------|--------4----------------| 
                                                                                
--------------------------|--------------------------|----------------4--------| 
--------------------------|--------------------------|-------------------------| 
-----------------4--7--4--|--------------------------|-------------2-----2--4--| 
--5---5-------5-----------|--7--7--7--7--7--7--7--7--|--5----0--5--------------| 
--------5--7--------------|--------------------------|-------------------------| 
                                                                               
-------------------------|----------------4--------|-------------------------| 
----------------6--------|-------------------------|-------------------6-----| 
----4--4--6--7-----7--6--|-------------2-----2--4--|----4--6--6--7--7-----7--| 
-------------------------|--5----0--5--------------|-------------------------| 
-------------------------|-------------------------|-------------------------| 
                                                                     
----------------4--------|------------------------|----------------4--------| 
-------------------------|------------------------|-------------------------| 
-------------2-----2--4--|------4-----4-4---2-----|-------------2-----2--4--| 
--5----0--5--------------|----------4----------4--|--5----0--5--------------| 
-------------------------|------------------------|-------------------------| 
                                                                   
-------------------------|-------------------|-------------------| 
-------------------------|-------------------|-------------------| 
------4-----2-2-2-----2--|-------------------|-------------------| 
----------4--------4-----|-------------------|-------------------| 
-------------------------|--2----------------|--2---------------- 
                                                                                 
-------------------|-------------------|-------------------|-------------------| 
-------------------|-------------------|-------------------|-------------------| 
-------------------|-------------------|-------------------|-------------------| 
-------------------|-------------------|-------------------|-------------------| 
--2----------------|--2----------------|--2----------------|--2----------------| 
                                                      
-------------------|--------------------|----------|| 
-------------------|--------------------|----------|| 
-------------------|--------------------|----------|| 
-------------------|--------------------|----------|| 
--2----------------|--2------2----------|----------|| 
  

top cifras jamily
top cifras gospel
ver mais cifras desse artista

letras do(a) Jamily

Top cifras » Top artistas »
Anuncie no Cifras Termos de Uso Política de Privacidade Material de DivulgaçãoFale Conosco
Petaxxon Comunicação Online
Cifras.com.br - Melhor e mais completo site de cifras e tablaturas do Brasil
Mais de 1 milhão de cifras cadastradas desde 2003
As informações contidas no Cifras.com.br são colaborações de seus usuários e podem conter erros, sendo assim, não se responsabiliza sobre nenhuma destas.
R7 Música
close
 
redimensionar