» Cifras.com.br » Letras de músicas » Notícias » TV Cifras » Guitar Pro » Gospel

ouvir música

anônimo

sem correções
Cifras Cancelar Versão de Impressão
cifras

Jimi Hendrix Experience - Voodoo Child

Tom:

 
 
  tabbed by me 
 
dont steal this tab, because if you do i will hunt you down. Now, the song... 
 
 
At the very begining, hendrix is just hitting the strings, which are muted, and hes messin
around with his wah pedal. 
 
 
Intro: With heavy distortion and wah pedal, good fun 
E|------------------------------------| 
B|------------------------------------| 
G|7^97-7--------7^97-99^7-------------| 
D|----9--557^5------9-----------------| 
A|------------7-----------------------| 
E|------------------------------------| 
 
E|-----------------------------------| 
B|-----------------------------------| 
G|7^97-7--------7^9979---------------| 
D|----9--557^5-----------------------| 
A|------------7----------------------| 
E|-----------------------------------| 
 
E|------------------------------------| 
B|------------------------------------| 
G|7^97-7--------7^97-99^7-------------| 
D|----9--557^5------9-----------------| 
A|------------7-----------------------| 
E|------------------------------------| 
                          B    B    R and P 
E|---------------------------------------------| 
B|----------------------10^(12)^(12)^8---------| 
G|7^97-7--------7^9979-------------------------| 
D|----9--557^5---------------------------------| 
A|------------7--------------------------------| 
E|---------------------------------------------| 
 
Main riff:  Distortion and wah 
E|---------X----------------------| 
B|---------8----------------------| 
G|---------7----------------------|this is the chord he uses, but since the  
D|---------6----------------------|is different each time, i just put the 
A|-2-------7----------------------|chord. Play until bridge. 
E|-0030----0----------------------| 
 
Bridge: Distortion and Wah 
E|--------------------------------| 
B|--------------------------------| 
G|-44444444---22222222------------|play once, the verse riff twice, then  
D|-XXXXXXXX---XXXXXXXX------------|chorus 
A|-55555555---44444444------------| 
E|--------------------------------| 
 
Chorus:  Distortion and Wah 
E|--------------------------------| 
B|--------------------------------| 
G|-33333333--55555555-------------| 
D|-22222222--44444444-------------| 
A|-33333333--55555555-------------| 
E|--------------------------------| 
  
 
No solo, cause he just improvises, and you should too, its more fun. 
 

  

top cifras jimi hendrix experience
top cifras rock'n roll
ver mais cifras desse artista

letras do(a) Jimi Hendrix Experience

Top cifras » Top artistas »
Anuncie no Cifras Termos de Uso Política de Privacidade Material de DivulgaçãoFale Conosco
Petaxxon Comunicação Online
Cifras.com.br - Melhor e mais completo site de cifras e tablaturas do Brasil
Mais de 1 milhão de cifras cadastradas desde 2003
As informações contidas no Cifras.com.br são colaborações de seus usuários e podem conter erros, sendo assim, não se responsabiliza sobre nenhuma destas.
R7 Música
close
menos
mais
close
Cor dos acordes:

Cor da letra:

 

save
close
close
 
redimensionar