Logo Cifras
João Pernambuco

João Pernambuco

Sons de carrilhões Tablatura

Cifras Cancelar Versão de Impressão
cifras

João Pernambuco - Sons de carrilhões

fixar na tela  
Exibindo: vídeo-aula ver clipes redimensionar
  
e|-10----------9-----------7--------------------------------------| 
B|--------7-------7--7--------10--8----0--------------------------| 
G|-----7----------7--7--------------------0--0--------------------| 
D|----------------------------------------2--2--------------------| 
A|----------------------0-----------------------------------------| 
D|----------0------------------------2----------2-----------------| 


e|--------------------------5-------------------------------------| 
B|-0--2--3---7-----------7-----7---0------------------------------| 
G|--------------6--6-----6-----6------2--2------------------------| 
D|--------------5--5------------------4--4------------------------| 
A|---------0----------0-------------------------------------------| 
D|-------------------------------0----------0---------------------| 


e|----------------------------5--7--5h7p5-----0-------------------| 
B|-------------------------7---------------8-----0----------------| 
G|-2-----------------5--8---------------------------0-------------| 
D|----4--------4--7------------------------------------2----------| 
A|-------5--6--------------------------------------------2--1--0--| 
D|----------------------------------------------------------------| 



e|----------------------10----------------------------------------| 
B|----------0--0--3------7----------------------------------------| 
G|-2--------0--0--2------7----------------------------------------| 
D|----4-----2--2--4------0----------------------------------------| 
A|-------5-----0--------------------------------------------------| 
D|----------2-----0--0--------------------------------------------| 



e|----------------------------8-----8--8--8--8--8--8--10--10--10--| 
B|-3--3--3--4--4--7--7--7--------7-----7--7--7--5--5---8---8---8--| 
G|-4--4--4--4--4--5--5--5--------------5--5--5--5--5---7---7---7--| 
D|-5--5--5--5--5--7--7--7--------------0---------------9----------| 
A|----------------------------------------------------------------| 
D|-5--------5-----0--------0-------------------------------------0| 



e|-7--12--10--7------------------------7--10-----9----------------| 
B|---------------8------------------8-----------------------------| 
G|------------------7------------7--------------------------------| 
D|---------------------9------9-----------------------------------| 
A|------------------------10------------------0-------------------| 
D|----------------------------------------------------------------| 


e|---9--7--------------------------------------------5------------| 
B|---------10--9--8--7--5--3/---------7-----------5-----7---------| 
G|----------------------------------7----7--7--7------------------| 
D|--------------------------------6------6--6--5------------------| 
A|-0---------------------------0----------------------------------| 
D|----------------------------------------------------------------| 


e|----------------------------------------------------------------| 
B|-------5--------3-----------------------------------------------| 
G|-----5----5--5--5-----------------------------------------------| 
D|---4------------------------------------------------------------| 
A|-0--------------------------------------------------------------| 
D|----------------------------------------------------------------| 


e|-7--12--10--7------0-----------------------------------------3--| 
B|---------------9~-----3--0--------------1-----4-----3--5--3--5--| 
G|----------------------------1-----------2-----3-----4--5--5--0--| 
D|-------------------------------2--0-----2-----5-----5--4--4-----| 
A|-------------------------------------3-----6-----5-----0--------| 
D|-------------------------------------------------------------5--| 






  

top 5 | joão pernambuco
top mpb
Outras músicas do artista letras do(a) João Pernambuco
Top cifras »Top artistas »
Petaxxon Comunicação Online
Cifras.com.br - Melhor e mais completo site de cifras e tablaturas do Brasil
Mais de 1 milhão de acordes de músicas cadastradas desde 2003
As informações contidas no nosso site são colaborações de seus usuários e podem conter erros, sendo assim, não nos responsabilizamos sobre nenhuma destas.
close
menos
mais
close
Cor dos acordes:

Cor da letra:

 

save
close
close
 
redimensionar