» Letras de músicas » Notícias » Video Aulas » Guitar Pro » Gospel
Johann Sebastian Bach

Johann Sebastian Bach

Jesus, Alegria dos Homens

ouvir música
ouvir música
enviado por
enviada por:
wickedman
cifra enviada
corrigido por:
Teusalves
Cifras Cancelar Versão de Impressão
cifras

Johann Sebastian Bach - Jesus, Alegria dos Homens

fixar na tela  
Exibindo: vídeo-aula ver clipes redimensionar
  

|-----------------------0--------3--2------3---------------------| 
|---------3--3--1---1------3--3---------------3--0---------------| 
|----0-2---------------------------------------------0-----------| 
|---------------------------------------2------------------------| 
|-------------------0--------------------------------------------| 
|-3-------3-------------------2----------------------0-----------| 



|-------------0--------------------------------------------------| 
|----0--1--3------3--1--0------0---------------------------------| 
|-2-------------------------2-----0-----0--2---------------------| 
|------------------------------------4--------0------------------| 
|-------0---------2---------3--------5---------------------------| 
|---------------------------------------------2------------------| 



|----------------------------------------------------------------| 
|-------1--0-----0-----------------------------------------------| 
|----2--------2--------------------------------------------------| 
|-4--------------------------------------------------------------| 
|----------------------------------------------------------------| 
|----------------3-----------------------------------------------| 

(Frase 1) 


|----------------------------------------------3-----------------| 
|----0------3--1---0---------------------0--3-----3--0-----------| 
|-2-------------------2--0------0-----0------------------0-------| 
|-------2--------------------0-----4-----------------------------| 
|-------3----------4---------------------------------------------| 
|----------------------------2--------3------------------3-------| 



|----------------------------------------------------------------| 
|----1--3-----3--1-----------------------------------------------| 
|----0--2--0--2--0--2--2~----------------------------------------| 
|----2--0--0--0--2--0--0-----------------------------------------| 
|----------------------------------------------------------------| 
|-2--0--2--3--2--0--2--------------------------------------------| 



|----------------------------------------------------------------| 
|-----------------------1p0---1--------------------1--0-----0----| 
|----2~--------2p0--2-------------2-----------2---2------2--0----| 
|-0-----0h2--4------4---------0------4--0h4----------------------| 
|----------------------------------------------------------------| 
|------------------------------------------------2----------3----| 



|---------------------0--------4--2--3---------------------------| 
|---------3--3--1--1-----4--3--------3--3--0--------0-----3--1---| 
|---0--2--0--------0--------------------------0--2---------------| 
|------------------------------------2-----------------2---------| 
|------------------0--------2--------------------------3---------| 
|-3-------3-----------------------------------0------------------| 


|----------------------------3-----------------------------------| 
|-0--------------------0--3-----3--0-----------------------------| 
|----2--0-----0-----0------------------0-------------------------| 
|----------0-----4-----------------------------------------------| 
|-4--------------------------------------------------------------| 
|----------2--------3------------------3~------------------------| 



|---------3------------------------------------------------------| 
|---0--3-----3--0--------2----3----------------------------------| 
|------------------0--2------2-----------------------------------| 
|------------------------2--4------------------------------------| 
|------------------------0---------------------------------------| 
|-3----------------3--2------------------------------------------| 



|----------------------------------------------------------------| 
|----------------0-----2--1--0--1--------------------------------| 
|--------2-1--1-----2--2-----------2-----------------------------| 
|-0-2--4------------------------------2--------------------------| 
|------3------2--------0------------------3----------------------| 
|-------------------------------4--------1-----------------------| 



|----------------------------------------------------------------| 
|---------3--1---3--0--------------------------------------------| 
|----------------------1---------1-------------------------------| 
|-0--2--3------------------2--4-------2--------------------------| 
|----------------2--------------------0--------------------------| 
|-------1-----------------0--------------------------------------| 




|----------0--------1--0--0--4--3--5-----------------------------| 
|-1--0--0-----3--3--------------------5--------------------------| 
|----------------------------------------5--2~-------------------| 
|-------3--------2-----------------3--------2--------------------| 
|-------------------------3--------------------------------------| 
|----------------------------------------------------------------| 



|-----0---1p0----------------------------------------------------| 
|0-1-----------3------1p0----------------------------------------| 
|--------------------------2-----2--1--2-------------------------| 
|--------0--------1-----------2----------------------------------| 
|--------------------------------------0-------------------------| 
|-----------------------------0----------------------------------| 



|----0-----------------------------------------------------------| 
|-1--------------------------------------------------------------| 
|----------------------------------------------------------------| 
|--------hn7-----------------------------------------------------| 
|----------------------------------------------------------------| 
|----------------------------------------------------------------| 


|----0--------0------------6--5--5--8--7--8--5-------------------| 
|-3--1--1--3-----8~-6---8-----------------------6--3-------------| 
|-0--0-----------------------------------------------------------| 
|-0--2------------------------------------0----------------------| 
|-2--3--------0---------7--------8-------------------------------| 
|--------------------------------------------------3-------------| 


|-3~-1---3--0----------------------------------------------------| 
|--------------1-------------------------------------------------| 
|-----------------0--2--3--2-------------------------------------| 
|-------2--------------------------------------------------------| 
|-----------------3----------------------------------------------| 
|--------------------------1-------------------------------------| 


|----------------------------------------------------------------| 
|-1--0--1--------------------------------------------------------| 
|----------2-----------------------------------------------------| 
|-------0-----3--0--2--3---2-------------------------------------| 
|-------------------------3--------------------------------------| 
|----------------3-----------------------------------------------| 


|----------------------------------------------------------------| 
|------------------0-----0---------------------------------------| 
|---------------0-----2--0---------------------------------------| 
|---0--2--5--4--------0------------------------------------------| 
|-3-------5--3---------------------------------------------------| 
|---------------3-----2--3~--------------------------------------| 




|---------------------0--------3--2--3---------------------------| 
|---------0--3--1--1-----3--3-------------3--0----------0--------| 
|---0--2------------------------------------------0--2-----------| 
|------------------------------------2---------------------------| 
|------------------0--------2------------------------------------| 
|-3-------3---------------------------------------0--------------| 


|-------0--------------------------------------------------------| 
|-1--3-----3--1--0-----0-----------------------------------------| 
|-------------------2-----0--------------2--0--2-----------------| 
|----------------------------4--0--2--4--------------------------| 
|-0--------2--------3--------5-----------------------------------| 
|----------------------------------------------------------------| 


|----------------------------------------------------------------| 
|-1--0--1----------------1--2------3-----------------------------| 
|----------2---------2---2------2--------------------------------| 
|-------0-----4-0h4----------------------------------------------| 
|----------------------------------------------------------------| 
|------------------------2---------3-----------------------------| 


  
|---------3-----------------0------------------0-----------------| 
|---0--3-----3--0-----0--3-----3--0------0--3-----1--------------| 
|------------------0-------------------0-------------2-----------| 
|----------------------------------------------------------------| 
|----------------------------------------------------------------| 
|-3----------------3-------------------3-------------------------| 


|----------------------------------------------------------------| 
|-------1--3--0-----------0--1----------------1--0-----0---------| 
|----2-----------0-----0--------2----------2--------2------------| 
|-4-----------------2--------------4--0h4------------------------| 
|----------------------------------------------------------------| 
|----------3-------------------------------------------3---------| 



|---------------------0----------3--0----3-----------------------| 
|---------0--3--1--1-----3----3-------------3--0-----------------| 
|---0--2---------------------3--------------------0--------------| 
|--------------------------------------2-------------------------| 
|---------------------------2------------------------------------| 
|-3-------2--------0------------------------------0--------------| 


    

|------------------------------------------3---------------------| 
|---0-----3--1--0--------------------0--3-----3--0---------------| 
|-2----------------2--0--0--0-----0------------------0-------hn13| 
|------2-----------------------4------------------------hn13-----| 
|------3--------4------------------------------------------------| 
|------------------------2--------3------------------3-----------| 


  

top 5 | johann sebastian bach
top música clássica
Outras músicas do artista letras do(a) Johann Sebastian Bach
Top cifras » Top artistas »
Anuncie Termos de Uso Política de Privacidade Material de DivulgaçãoFale Conosco
Petaxxon Comunicação Online
Cifras.com.br - Melhor e mais completo site de cifras e tablaturas do Brasil
Mais de 1 milhão de acordes de músicas cadastradas desde 2003
As informações contidas no nosso site são colaborações de seus usuários e podem conter erros, sendo assim, não nos responsabilizamos sobre nenhuma destas.
R7 Música
close
menos
mais
close
Cor dos acordes:

Cor da letra:

 

save
close
close
 
redimensionar