» Cifras.com.br » Letras de músicas » Notícias » TV Cifras » Guitar Pro » Gospel
Logo Cifras.com.br

Início » Samba e Pagode » Jorge Aragão »

Ave Maria (Cavaquinho)

Jorge Aragão

Jorge Aragão
Ave Maria (Cavaquinho)

Escute esta músicas

Autor: (Charles Gounod)

Formatação

colunas A+ A- cores

Instrumento

cifras tablaturaver outros instrumentos

Nível

Iniciante

Nível: Iniciante

Transcrição

enviada por vitorsmello


corrigida por Acelot

  

   G         Am        D7          G     B7  Em              Am
d|---------------------0~--------------------2~------------------|
B|-0~--------1~--------------------0~----------------------------| 
G|------------------------------2~------------------------0~-2~--| 
D|---------------------------------------------------2~-4~-------| 

           D7           G        B7  Em             A7         
d|---------0~------------------------5~--------------------------|
B|-0~---------------------------------------------0~2~---0~------| 
G|---2~-----------------0~---2~0~------------0~-2~----------2~---| 
D|---------------0~-2~4~-----------------------------------------|


        D                      Am          Eb°          G    
d|---------------------------0~2~-----------------------0~-------| 
B|----------------0~-------1~-----------------------0~1~---------| 
G|------------2~---------------------------2~--------------------| 
D|2~--4~-----------------------------2~-----------------------0~-|


  B7  Em           Am           D7              G         G7
d|--------------------------0~2~4~---2~-0~----------------0~-----| 
B|---------------0~1~---------------------------0~---------------| 
G|----0~-------2~---------------------------2~-------------------| 
D|-0~------------------------------------------------------------|


        C                                   Am          D7
d|------2~----------2~----------2-5~----------5-5~---------------| 
B|0~-------------------------------------------------------------| 
G|------------------------0~------------3~------------2~----2~---| 
D|------------2~-------------------------------------------------| 


           G             Am           D7            
d|---------0~-------------------------7~---4~-0~----2~-------4~--|
B|--------------0~-------1~-------0~-----------------------------| 
G|-----0~----------0~---------------2~---------------------------| 
D|-------4~------------------------------------------------------| 


    G               Am            D7                G    G7        
d|5~9~-----5~-0~------------2-4-2-0--7--4-0--------------------|
B|---------------0~-------------------------1------------------| 
G|------------------2~------------------------2-----0~---------|
D|----------------------------------------------4-0------------|


          D7        G         D7        G
d|--------0~--------0~--------0~--------9~-----------------------|
B|---------------------------------------------------------------| 
G|~--------------------------------------------------------------| 
D|---------------------------------------------------------------| 
  

top cifras jorge aragão
top cifras samba e pagode
ver mais cifras desse artista

letras do(a) Jorge Aragão

Top cifras » Top artistas »
Anuncie no Cifras Termos de Uso Política de Privacidade Material de DivulgaçãoFale Conosco
Petaxxon Comunicação Online
Cifras.com.br - Melhor e mais completo site de cifras e tablaturas do Brasil
Mais de 1 milhão de cifras cadastradas desde 2003
As informações contidas no Cifras.com.br são colaborações de seus usuários e podem conter erros, sendo assim, não se responsabiliza sobre nenhuma destas.
R7 Música
close
 
redimensionar