» Cifras.com.br » Letras de músicas » Notícias » TV Cifras » Guitar Pro » Gospel
Logo Cifras.com.br
Led Zeppelin

Stairway to Heaven

Led Zeppelin Escute esta e outras músicas enquanto navega no Cifras

Ano: 1971 - Album: Led Zeppelin IV (aka ZOSO)

Autor: (Jimmy Page / Robert Plant)

Formatação

colunas A+ A- cores

Nível

Iniciante

Nível: Iniciante

Transcrição

anônimo


  Led Zeppelin - Stairway To Heaven 

e ------5--7-----7--8------8--2-----2-0--------0--------------- 
B ----5------5--------5---------3--------1---1---1----0-1-1---- 
G --5----------5--------5---------2--------2-------2--0-2-2---- 
D 7--------6--------5---------4-------3------------------------ 
A ----------------------------------------------------2-0-0-0-- 
E ------------------------------------------------------------- 

e ----------------7-----7---8------8-2-----2--0-------0-------- 
B --------------5---5---------5--------3--------1---1---1---0-1 
G ------------5-------5---------5--------2--------2-------2-0-2 
D ----------7-----6---------5--------4--------3---------------- 
A -2/8--7-0-------------------------------------------------2-0 
E ------------------------------------------------------------- 

e -------------0-2-----2-0-----0-------------------3-----3-3p222 
B -1---------------3-------1-----0h1-------1-----1---0-----3-333 
G -2---------0-------2-------2-------2-------0---------0---2--22 
D ---------2-----0-------3---------------------2-----------0---0 
A -0-0-2-3-----------------------0-----0-2-3-------------------- 
E -------------------------------------------------3------------ 

e -------------2-----2--0-----0--------------------------2-0-0-0 
B -----------1---3--------1-----0h1-------------1------3---1-1-1 
G ---------0-------2--------2-------2---------0------2-----2-2-2 
D -------2-----0--------3-------------------2------0-------3-3-3 
A -0-2-3------------------------0-----0-2-3--------------------- 
E -------------------------------------------------------------- 


e -------5--7-------7--8------8-2-----2-0-------0-------------- 
B -----5-------5---------5--------3-------1---1---1----0-1-1--- 
G ---5-----------5---------5--------2-------2-------2--0-2-2--- 
D -7--------6----------5--------4-------3---------------------- 
A -----------------------------------------------------2-0-0--- 
E ------------------------------------------------------------- 

e -------5-7------7--8------8-2-----2--0-------0--------------- 
B -----5-----5---------5--------3--------1---1---1----0-1-1---- 
G ---5---------5---------5--------2--------2-------2--0-2-2---- 
D -7-------6---------5--------4--------3----------------------- 
A ----------------------------------------------------2-0-0-0-2 
E ------------------------------------------------------------- 

e ---------2-----2--0-------0---------------------3----3-3p2-2-2-2- 
B -------1---3--------1-------0h1---------1-----1---0----3-----3-3- 
G -----0-------2--------2---------2---------0---------0--2-------2- 
D ---2-----0--------3-------------------------2----------0-------0- 
A -3--------------------------0-------0-2-3------------------------ 
E ------------------------------------------------3---------------- 

e -----------0-2---2 
B --------------3--- 
G --------0------2-- 
D ------2------0---- 
A 0 2 3------------- 
E ------------------ 

e -0----------------------------2-----2-0-0-0------------------ 
B ---1---1--0h1--------1------1---3-----1-1-1------------------ 
G ----2---------2--------0----------2---2-2-2------------------ 
D -------------------------2----0-------3-3-3------------------ 
A -3---------------0-2-3--------------------------------------- 
E ------------------------------------------------------------- 


e ------5-7-----7-8-----8-2------2--0---0---0------------------ 
B ----5-----5-------5-------3---------1---1---1----0-1-1------- 
G --5---------5-------5-------2-----------------2--0-2-2------- 
D 7-------6-------5-------4---------3-------------------------- 
A -------------------------------------------------2-0-0--0---- 
E ------------------------------------------------------------- 

e ------------------5--7-------7-------------8-------------2--- 
B -----------------------5---5---5---------5---5---------3----- 
G ---------------5---------5-------5-----5-------5-----2------- 
D -------------7-------6-------------6-5-----------5-4--------- 
A ----2/8-7--0------------------------------------------------- 
E ------------------------------------------------------------- 

e ----------------0--------------0--1------0--1-1-------------- 
B --3-----------1---1----------1------2----0--2-2-------------- 
G ----2---2---2-------2------2----------3---------------------- 
D ------4---3-----------3--3---------------2--0-0-------------- 
A ------------------------------------------------------------- 
E ------------------------------------------------------------- 


e ------3----3--3--3--3--3--0----0---2---------2--2--2--2-------- 
B --3---1----1--1--1--1--1--1----3---3---------3--3--3--3-------- 
G --0---2----2--2--2--2--2--2----2---2---2--2--2--2--2--2-------- 
D --0---2----2--2--2--2--2--2----0---0---0--0--0--0--0--0---0---- 
A --2-------------------------------------------------------0---- 
E --------------------------------------------------------------- 

e --3----3--3--3--3--3--0----7-----5---3---5--------------------- 
B --1----1--1--1--1--1--1----8-----7---5---7--------------------- 
G --2----2--2--2--2--2--2----9-----7---5---7--------------------- 
D --2----2--2--2--2--2--2-------0---------------0---------------- 
A ----------------------------------------------0---------------- 
E --------------------------------------------------------------- 

e ------3----3--3--3--3--3--0----0---2---------2--2--2--2-------- 
B ------1----1--1--1--1--1--1----3---3---------3--3--3--3-------- 
G ------2----2--2--2--2--2--2----2---2---2--2--2--2--2--2-------- 
D ------2----2--2--2--2--2--2----0---0---0--0--0--0--0--0-------- 
A --------------------------------------------------------------- 
E --------------------------------------------------------------- 

e --3----3--3--3--3--3--0----7-----5---3---5--------------------- 
B --1----1--1--1--1--1--1----8-----7---5---7--------------------- 
G --2----2--2--2--2--2--2----9-----7---5---7--------------------- 
D --2----2--2--2--2--2--2-------0-------------------------------- 
A --------------------------------------------------------------- 
E --------------------------------------------------------------- 


e ----0-------------------------0--------------0-------------0-0 
B -1------1--0--3---0--0h1----------2-------1------1--0--3---0-1 
G ------0---------0--------2--2---2---2--0-------0---------0-2-2 
D -----------------------------------------------------------3-2 
A -3---------2---------0------0-------0--2--3---------2------3-0 
E -----------------------------------------------------------1-- 

e -----0------------------------0--------------0-------------0-0 
B --0-1-----1-0--3---0--0h1----------2------1-------1--0-----0-1 
G 2------0--------0--------2--2---2---2--0-------0---------0-2-2 
D -----------------------------------------------------------3-2 
A 0-2-3-------2--------0------0-------0--2--3-------2--------3-0 
E -----------------------------------------------------------1-- 
  
e ----------0------------------3-3-3-3---0--0--2-------2-2-2-2-- 
B -----0--1-----1--0--3---0----1-1-1-1---1--3--3-------3-3-3-3-- 
G --2---------0---------0---2--2-2-2-2---2--2--2--2-2--2-2-2-2-- 
D -----------------------------2-2-2-2---2--0--0--0-0--0-0-0-0-- 
A --0--2--3--------2--------2--0-0-0-0---0---------------------- 
E -------------------------------------------------------------- 

e --3--3-3-3-3-3---0----7-----5---3---5------------------------- 
B --1--1-1-1-1-1---1----8-----7---5---7------------------------- 
G --2--2-2-2-2-2---2----9-----7---5---7------------------------- 
D --2--2-2-2-2-2---2-------0------------------------------------ 
A --0--0-0-0-0-0------------------------------------------------ 
E -------------------------------------------------------------- 


e --2----0--2--4----0--2--4----0--2--4---4---2------------------- 
B --3----3--3--3----3--3--3----3--3--3---3---3------------------- 
G --2----2--2--2----2--2--2----2--2--2---2---2------------------- 
D --0----0--0--0----0--0--0----0--0--0---0---0------------------- 
A --------------------------------------------------------------- 
E --------------------------------------------------------------- 

e ----2--2-2-2--0-----2--2-2-2--0-------------------------------- 
B ----3--3-3-3--3-----3--3-3-3--3--3----------------------------- 
G ----0--0-0-0--0-----0--0-0-0--0--0----------------------------- 
D --------------------------------------------------------------- 
A --3---------------3-------------------------------------------- 
E --------------------------------------------------------------- 

e --2----0--2----0-2-4---0-2-4--4--2----------------------------- 
B --3----3--3----3-3-3---3-3-3--3--3----------------------------- 
G --2----2--2----2-2-2---2-2-2--2--2----------------------------- 
D --0----0--0----0-0-0---0-0-0--0--0----------------------------- 
A --------------------------------------------------------------- 
E --------------------------------------------------------------- 

e ----2--2-2-2--0--------0--2------------------------------------ 
B ----3--3-3-3--3------3-------3--------------------------------- 
G ----0--0-0-0--0----0------------4p2--0------------------------- 
D --------------------------------------------------------------- 
A --3--------------2--------------------------------------------- 
E --------------------------------------------------------------- 

Solo 

e ------5----------------------------8-8--8b10-8-5------8-10h8- 
B --------8-5------------------8/10----------------8/10-------- 
G --7b9-------7-5---7p5---------------------------------------- 
D ----------------7------7p5----------------------------------- 
A ---------------------------8--------------------------------- 
E ------------------------------------------------------------- 

e ---------------------5-----------------------------------5--- 
B ---10-8----8h10--------8-5---------------------------------8- 
G --------10------7b9--------7-5---7p5------------5---5-5------ 
D -------------------------------7------7-5---5-7---7-----5---- 
A ------------------------------------------7------------------ 
E ------------------------------------------------------------- 

e ------------------------------------------------------------- 
B -5----------------------------------------------------------- 
G ---7-5---7p5--------------------10-------------------12----12 
D -------7-----7p5--7p5--------10----12p10----10-12/14----14--- 
A ----------------------8-8/12-------------12------------------ 
E ------------------------------------------------------------- 

e ----------------------------15b17-15-12---------------------- 
B ----13-15b17-15-13-15-13----------------15b17-15-13-----13--- 
G -14--------------------------------------------------14------ 
D ------------------------------------------------------------- 
A ------------------------------------------------------------- 
E ------------------------------------------------------------- 

e --------------------------------------------------------------- 
B ----15b17b15p13----13-15b17b15p13----13-15b17b15p13----13-15b17 
G ----------------14----------------14----------------14--------- 
D --------------------------------------------------------------- 
A --------------------------------------------------------------- 
E --------------------------------------------------------------- 

e ----------- 
B -b15p13---- 
G --------14- 
D ----------- 
A ----------- 
E ----------- 

e ------------------------------------------------------------- 
B ----15b17b15p13----13-15b17b15p13----13-15b17b15p13---------- 
G ----------------14----------------14------------------------- 
D ------------------------------------------------------------- 
A ------------------------------------------------------------- 
E ------------------------------------------------------------- 

e ---------------------------------------------15b17b15p13---15-12- 
B ----13-15b17b15p13-----13-15b17b15p13-----13--------------------- 
G -14-----------------14-----------------14------------------------ 
D ----------------------------------------------------------------- 
A ----------------------------------------------------------------- 
E ----------------------------------------------------------------- 

e --------------------------------15--------------------------- 
B --15-13----13-15-13----13-15b17----15b17b15p13--------------- 
G --------14----------14-------------------------14------------ 
D ------------------------------------------------------------- 
A ------------------------------------------------------------- 
E ------------------------------------------------------------- 

e -----------17------------------------------------------------ 
B --------20----20--------------------------------------------- 
G --19b21-------------19b21b19p17----19-17----19--19b21-------- 
D -----------------------------------------19------------------ 
A ------------------------------------------------------------- 
E ------------------------------------------------------------- 

e ------------------------------------------------------------- 
B ------------------------------------------------------------- 
G -14b17--14b16--14--12--14--12h14-----10b14--10-9-7----7----7- 
D ---------------------------------------------------10---10--- 
A ------------------------------------------------------------- 
E ------------------------------------------------------------- 

e ---------------------------20p17----20p17----20p17----20p17-- 
B ------------------------17-------17-------17-------17-------- 
G ----9----7--------------------------------------------------- 
D ------------10----7------------------------------------------ 
A ------------------------------------------------------------- 
E ------------------------------------------------------------- 

e --------20-p17-------20b22----------------------------------- 
B -----17------------------------------------------------------ 
G ------------------------------------------------------------- 
D ------------------------------------------------------------- 
A ------------------------------------------------------------- 
E ------------------------------------------------------------- 


e --------------------------------------------------------------- 
B --------------------------------------------------------------- 
G --------------------------------------------------------------- 
D --------------------------------------------------------------- 
A --7--7---5--5---3-x--3-x--3-x--3-x--3-x--3---5----------------- 
E --5--5---3--3---1-x--1-x--1-x--1-x--1-x--1---3-----------------  3x 

e --------------------------------------------------------------- 
B --------------------------------------------------------------- 
G --------------------------------------------------------------- 
D --------------------------------------------------------------- 
A -7--7--5--5--------3--5\7--5--3-------5--5--------3--5\7--5--3- 
E -5--5--3--3--1-3\5--------------5--5--3--3--1-3\5-------------- 

e -------------------------------------------1-----------1------ 
B -------------------------------------------2-----------2------ 
G -------------------------------------------3-----------3------ 
D -------------------------------------------0-----------0------ 
A ------5--5--------3--5\7--5--3-------5--5-----7-7-5-5--------- 
E 5--5--3--3--1-3\5--------------5--5--3--3-----5-5-3-3--------- 




e ------------------------------------------------------------- 
B --8h10--10----------10---8h10--10---3----5----8------10------ 
G ------------7\9--9-----9------------5b7--7b9--10b12--12b14--- 
D ------------------------------------------------------------- 
A ------------------------------------------------------------- 
E ------------------------------------------------------------- 



e ------------------------------------------------------------- 
B --13-------12-------13-------12-------13-------12-------13--- 
G --15b17----14b16----15b17----14b16----15b17----14b16----15b17 
D ------------------------------------------------------------- 
A ------------------------------------------------------------- 
E ------------------------------------------------------------- 



e ------------------------------------------------------------- 
B --15-------13-------12-------15-------13--------------------- 
G --17b19----15b17----14b16----17b19----15b17------------------ 
D ------------------------------------------------------------- 
A ------------------------------------------------------------- 
E ------------------------------------------------------------- 




  

top cifras led zeppelin
top cifras rock clássico
ver mais cifras desse artista var letras desse artista
Top cifras » Top artistas »
Anuncie no Cifras Termos de Uso Política de Privacidade Material de DivulgaçãoFale Conosco
Petaxxon Comunicação Online
Cifras.com.br - Melhor e mais completo site de cifras e tablaturas do Brasil
Mais de 1 milhão de cifras cadastradas desde 2003
As informações contidas no Cifras.com.br são colaborações de seus usuários e podem conter erros, sendo assim, não se responsabiliza sobre nenhuma destas.
R7 Música
close
 
redimensionar