» Cifras.com.br » Letras de músicas » Notícias » TV Cifras » Guitar Pro » Gospel
Logo Cifras.com.br

Início » Rock'n Roll » Legião Urbana »Legiao Urbana »

Geração Coca-Cola

Legião Urbana

Legião Urbana
Geração Coca-Cola

Escute esta músicas

Ano: 1985
Album: Legiao Urbana
Autor: (Renato Russo)

Formatação

colunas A+ A- cores

Nível

Expert

Nível: Expert

Transcrição

enviada por satoxi28


  v - é um vibrato 

introducao:
----------|-------|-------||----7-11-------------7-11--------------------
--4-4-4-4-|-3-3-3-|-2-2-2-||--7------7-9-10----7------7-9-10----7v---
--4-4-4-4-|-2-2-2-|-2-2-2-||----------------9v---------------9v---------
--4-4-4-4-|-0-0-0-|-2-2-2-||--------------------------------------------
--2-2-2-2-|-------|-0-0-0-||---------------------------------------------
----------|-------|-------||-------------------------------------------------
         Guitarra 1 (2x)                  Guitarra 2                          

verso:
----------|-------|-------|-----------------------------------------------
-------4--|---3---|---2---|---------------------------------------------
-------4--|---2---|---2---|---------------------------------------------
-------4--|---0---|---2---|---------------------------------------------
-------2--|-------|---0---|----------------------------------------------
----------|-------|-------|----------------------------------------------
      
o verso é só estes 3 acordes (escute a musica e pegue o ritmo)                                                                        

Ponte:
-------------------------------|-|------------------------------------------
---4---------2-----------------|-|---4------------------------------------
---4---------2----------4------|-|---4--------------------4--------------
---4---------2----------5------|-|---4--------------------5--------------
---2---------0----------5------|-|---2--------------------5--------------
------------------------3------|-|------------------------3---------------
   Somos os filhos da revolucao     Somos Burgueses sem religiao              

----------------------------------------------------------------------------
---4-------2--------------------------------------------------------------
---4-------2--------4-----------------------------------------------------
---4-------2--------5-----------------------------------------------------
---2-------0--------5----------------------------------------------------
--------------------3----------------------------------------------------
  Somos o futuro da nacao                                                     

Refrao:
------------------------------|-|--------------------------------------------
----2-----3----4--------------|-|----------2-----4------------------------
----2-----2----4--------------|-|----4-----2-----4-----------------------
----2-----0----4--------------|-|----5-----2-----4-----------------------
----0----------2--------------|-|----5-----0-----2----------------------
------------------------------|-|----3-------------------------------------
   Geracao Coca-cola   (4x)         Depois do refrao (quando acaba) (3x)      

Solo:
------------------------------------------------------------------------------
------------------------------------------------------------------------------
--7-7-7-7-7--7-7-7-7-7--9-9-9-9-9--9-9-9-9-9--11-11-11-11-11--11-11-11-11-11--
------------------------------------------------------------------------------
------------------------------------------------------------------------------
------------------------------------------------------------------------------
            Repete este solo (que e muito dificil) 3x                         

Depois do solo vem o verso , a ponte e o refrão (é so repetir)
  

top cifras legião urbana
top cifras rock'n roll
ver mais cifras desse artista

letras do(a) Legião Urbana

Top cifras » Top artistas »
Anuncie no Cifras Termos de Uso Política de Privacidade Material de DivulgaçãoFale Conosco
Petaxxon Comunicação Online
Cifras.com.br - Melhor e mais completo site de cifras e tablaturas do Brasil
Mais de 1 milhão de cifras cadastradas desde 2003
As informações contidas no Cifras.com.br são colaborações de seus usuários e podem conter erros, sendo assim, não se responsabiliza sobre nenhuma destas.
R7 Música
close
 
redimensionar