Cifras e Tablaturas
Legião Urbana

Legião Urbana

Pais e Filhos Tablatura

Ano: 1996
Album : As Quatro Estações
Compositor : (Dado Villa-Lobos / Renato Russo / Marcelo Bonfá)

Cifras Cancelar Versão de Impressão
cifras

Legião Urbana - Pais e Filhos

fixar na tela  
Exibindo: vídeo-aula ver clipes redimensionar
  Intr.: Guit. 1 (Violao) (4x)         Guit.2 (4x)                Canto 1   
E------------8----5----7-------7----|H.A em todas as notas---7-|----------|
B-1-3-5-----------------------------|-5------------12----12----|-Guit.1---|
G--------0-----0----0-------0-----0-|---5-4-5---------12-------|-da intro-|
D---------0---------------0---------|---------5----------------|-(4x)-----|
A-0-2-3-----------------------------|--------------------------|----------|
E-----------------------------------|--------------------------|----------|

Canto 2 (Guit. 1 - Violao)
E------------8----5------3-3-3-3-3-3-0----0-0-2-2-2-3--3--3--3--3--3------|
B-1-3-5-------------------1-1---1-1------1-1---3-3--------------------10--|
G--------0-----0----0------------------0--------------0--0--0--0--0-------|
D---------0----------0----------------------------------------------------|
A-0-2-3-------------------------------------------------------------------|
E-------------------------------------------------------------------------|
                    
                    Guit. 2
E----------------|-----------------------------------------------|
B-1-2---------------------
G---------------|----------------
D-----------------|----1------------------------------------------------|
A1-----2-----------|1--1--1-----------------------------------------------|
E------------------|---2--1----------------------------------------------|

                Canto 3   Guit.2   Canto 4 Guit.1
E--2-0-2--------|---------|---3---|-Guit.1 do-----------|--------------|
B-------3--3----|-Guit. 1-|---3---|-Canto 2-----------7-|--------------|
G--------2--2---|---------|-------|-Trocando a----------|-0-2-0-0------|
D---------------|-Canto 1-|-(18x)-|-última nota por:----|---------2-2--|
A---------------|---------|-------|---------------------|--------------|
E---------------|---------|-------|---------------------|--------------|

                                                     Intro. Refrao(Violao)
E---------------------------------------2-0----0---0-|-----------------|
B----------------1-----1----1-------------------3----|--0-0-0----------|
G--0-2-0-2-0-0-2-----2---0-2--0-2-2-0-2-----2----2---|--0-0-0----------|
D------------------0---------------------------------|-----------------|
A----------------------------------------------------|-----------------|
E----------------------------------------------------|-----------------|

Refrao (2x)
  G             C             Em7           C1*          C 2*
E-3-3-3-3-3-3-3-0-0-0-0-0-0-0-0-0-0-0-0-0-0-0-0-0-0-0-0-0--0-0--------|
B-3-3-3-3-3-3-3-1-1-1-1-1-1-1-3-3-3-3-3-3-3-1-1-1-1-1-1-1--1-1--------|
G-0-0-0-0-0-0-0-0-0-0-0-0-0-0-0-0-0-0-0-0-0-0-0-0-0-0-0-0--0-0--------|
D-0-0-0-0-0-0-0-2-2-2-2-2-2-2-2-2-2-2-2-2-2-2-2-2-2-2-2-2--2-2--------|
A-2-2-2-2-2-2-2-3-3-3-3-3-3-3-2-2-2-2-2-2-2-3-3-3-3-3-3-3--3-3--------|
E-3-3-3-3-3-3-3---------------0-0-0-0-0-0-0---------------------------|
*na primeira vez, tocar C1. Na segunda vez pular C1 e tocar só C2.

Canto 5
Guit. 1  Guit. 2
E--3-3--|--------------|--------12-13-13---------------------------------|
B--3-3--|--5--(5)----|------13---------11--11'--(11)--13--11--11---------|
G-------|--5'--(5)'--X-|----12----------------------12----------12-12#10-|
D-(23x)-|-----(5x)-----|--12---------------------------------------------|
A-------|--------------|-------------------------------------------------|
E ------|--------------|-------------------------------------------------|

E--------------------------------------------------------------------------|
B--------------------11-11'--(11)----11--------------/15---5--(5)--(5)--(5)|
G-10/--------12-12#/-------------12-----12-----12-12------5'-(5)'-(5)'-(5)'|
D------------------------------------------/14-----------------------------|
A-----11-12----------------------------------------------------------------|
E--------------------------------------------------------------------------|

E----------------------------------------------10-13-13-10---------------|
B----11-11#/-3-3-6-6/8----6-8-8'-(8)'/6---6/11-------------11------------|
G-/12---------3--------/7---------------7--------------------12-12-10-12-|
D------------------------------------------------------------------------|
A------------------------------------------------------------------------|
E------------------------------------------------------------------------|

E----------------------------------12-13-13/---18-18/---------------------|
B--------------------------------13---------15-------------5-3-----8------|
G-12-10----10------------------12----------------------3/5-----5/9--------|
D-------12----12----------------------------------------------------------|
A----------------13'-(13)'-10/--------------------------------------------|
E-------------------------------------------------------------------------|

              Refrao (4x) Guit. 1 = Violao
 Riff A      G             C             Em7           C1*          C2*
E----------|-3-3-3-3-3-3-3-0-0-0-0-0-0-0-0-0-0-0-0-0-0-0-0-0-0-0-0-0--0-0-0-|
B----------|-3-3-3-3-3-3-3-1-1-1-1-1-1-1-3-3-3-3-3-3-3-1-1-1-1-1-1-1--1-1-1-|
G--Canto 4-|-0-0-0-0-0-0-0-0-0-0-0-0-0-0-0-0-0-0-0-0-0-0-0-0-0-0-0-0--0-0-0-|
D----------|-0-0-0-0-0-0-0-2-2-2-2-2-2-2-2-2-2-2-2-2-2-2-2-2-2-2-2-2--2-2-2-|
A----------|-2-2-2-2-2-2-2-3-3-3-3-3-3-3-2-2-2-2-2-2-2-3-3-3-3-3-3-3--3-3-3-|
E----------|-3-3-3-3-3-3-3---------------0-0-0-0-0-0-0----------------------|
*tocar C1 na 1a, 2a e 3a vez. Na 4a pule C1 e toque C2.

 Guit. 2 (4x) c/dist.                         Canto 6 (3x) Guit.1
E------------------------------------(8/)----|----------------------------|
B-15--15/13--13/12--12/10--(10/8*)---(8/)+---|--------13----------15------|
G--------------------------------------------|----------12----------14----|
D--------------------------------------------|--12/14-----14-14/16----16--|
A--------------------------------------------|----------------------------|
E--------------------------------------------|----------------------------|
*tocar * na 1a, 2a e 3a vez. Na 4a pule * e toque só +.

                             Guit. 2  Final
E--------------10-12-10-----|--3--3--|---------------------------|
B-----12-----10---------10--|--3--3--|-Mesmas Guitarras----------|
G---12-----10---------------|--------|-do Canto 6----------------|
D-12-----12-----------------|--(4x)--|-adicionando-se a Guit. 1--|
A---------------------------|--------|-da intro na 3a vez--------|
E---------------------------|--------|---------------------------|
  

top 5 | legião urbana
top rock'n roll
Outras músicas do artista letras do(a) Legião Urbana
Top cifras »Top artistas »
Petaxxon Comunicação Online
Cifras.com.br - Melhor e mais completo site de cifras e tablaturas do Brasil
Mais de 1 milhão de acordes de músicas cadastradas desde 2003
As informações contidas no nosso site são colaborações de seus usuários e podem conter erros, sendo assim, não nos responsabilizamos sobre nenhuma destas.
close
menos
mais
close
Cor dos acordes:

Cor da letra:

 

save
close
close
 
redimensionar