» Cifras.com.br » Letras de músicas » Notícias » TV Cifras » Guitar Pro » Gospel
Logo Cifras.com.br

Início » Rock'n Roll » Legião Urbana » »

Teatro Dos Vampiros

Legião Urbana

Teatro Dos Vampiros

Legião Urbana Escute esta e outras músicas enquanto navega no Cifras

Autor:

Formatação

colunas A+ A- cores

Nível

Expert

Nível: Expert

Transcrição

enviada por taradaocruel


  Legião Urbana - O Teatro Dos Vampiros (cifrada) 
 
 
===ESSSA É A MÚSICA TEATRO DOS VAMPIROS DO CD ACUSTICO MTV=== 
 
 
Este é o solo de introdução dessa música na versão do acústico 
da  
MTV.Escute e pegue os slides e algumas coisinha mais.É mais ou 
menos  
isso ai. 
Enquanto renato vica tocando as notas Dado Faz este solinho      
               
e|---------------------------|--------------------2-2-2------|   
  
B|---5-----3-----1---3---3--3|---5-----3----1------3-3-3--3--|   
          
G|-----0---------------------|-----0----------------2-2-2----|  
 
D|-5-----4----2s4--4---4---4-|-5-----4---2s4--4--------------|   
         
A|---------------------------|-------------------------------| 
E|---------------------------|-------------------------------| 
 
e|------------------------------|-------------------------------| 
B|---5-----3-----1---3---3---3--|--5--------7-------8---8--9----| 
G|-----0------------------------|-------------------------------| 
D|-5-----4----2s4---4---4---4---|-5---5--5/7--7-7/9---9---9-----| 
A|------------------------------|-------------------------------| 
E|------------------------------|-------------------------------| 
 
 
Riff 1 
e---0-0-0-------------|                     
B|---------3-1-1-------|                      
G|-0-------------------|   
                      
riff 2 
e-7----7----7------7----7--8--8--8--7--7---7--7---5-5----------| 
  
B|--8----8-----8------8-----8--8--8--8--8---8--8---8-8----------| 
 
G|----7----7-----7-----7----7--7--7--7--7---7--7---7-7----------| 
 
 
Tom - G 
 
Introdução - G D Em Bm C G C D  
 
C                      Bm 
Sempre precisei de um pouco de atenção 
C 
Acho que não sei quem sou 
   Bm 
Só sei do que não gosto 
C                   Bm 
E destes dias tão estranhos 
      Bb                            F C      riff 1 
Fica poeira se escondendo pelos cantos 
C              Bm               C                 Bm 
Este é o nosso mundo: o que é demais nunca é o bastante 
            C                      Bm 
E a primeira vez é sempre a £ltima chance. 
        Bb 
Ninguém vê onde chegamos: 
                     F   riff 1     C                 
Os assassinos estão livres, nós não estamos    
       G 
Vamos sair - mas não temos mais dinheiro 
Os meus amigos todos estão procurando emprego 
   F 
Voltamos a viver como há dez anos atrás 
    C/E 
E a cada hora que passa  
Envelhecemos dez semanas 
G 
Vamos lá, tudo bem - eu só quero me divertir         riff 2 
Esquecer, dessa noite ter um lugar legal pra ir 
F 
Já entregamos o alvo e a artilharia 
     C/E 
Comparamos nossas vidas 
E esperamos que um dia 
       G 
Nossas vidas possam se encontrar   Introducão 
C            Bm               C 
Quando me vi tendo de viver comigo apenas 
        Bm 
E com o mundo 
C                   Bm 
Você me veio como um sonho bom 
     Bb 
E me assustei 
           F    C           riff 1 
Não sou perfeito 
Eu não esqueço 
                   Bm 
A riqueza que nós temos 
C                 Bm 
Ninguém consegue perceber 
C                  Bm   Bb 
E de pensar nisso tudo, eu, homem feito 
F           C         riff 1 
Tive medo e não consegui dormir. 
     C/E 
Comparamos nossas vidas 
                    G 
E mesmo assim, não tenho pena de ninguém. 
 
 
 
E|--7---8--7-7---:-3-3--3--5-5---:--7---8--7-7---:-10-10--10--8-8-: 
repita,  --7--: 
B|--8---8--8-8---:-5-5--5--7-7---:--8---8--8-8---:-10-10--10--8-8-: 
depois   --8--: 
G|--7---9--7-7---:-4-4--4--7-7---:--7---9--7-7---:-11-11--11--9-9-: 
termine  --7--: 
D|---------------:---------------:---------------:----------------: 
com      --9--: 
A|---------------:---------------:---------------:----------------: 
o        -----: 
E|---------------:---------------:---------------:----------------: 
seguinte -----: 
 
 
 
{FECHAR JANELA} 
 

  

top cifras legião urbana
top cifras rock'n roll
ver mais cifras desse artista var letras desse artista
Top cifras » Top artistas »
Anuncie no Cifras Termos de Uso Política de Privacidade Material de DivulgaçãoFale Conosco
Petaxxon Comunicação Online
Cifras.com.br - Melhor e mais completo site de cifras e tablaturas do Brasil
Mais de 1 milhão de cifras cadastradas desde 2003
As informações contidas no Cifras.com.br são colaborações de seus usuários e podem conter erros, sendo assim, não se responsabiliza sobre nenhuma destas.
R7 Música
close
 
redimensionar