» Letras de músicas » Notícias » Video Aulas » Guitar Pro » Gospel
ouvir música
ouvir música
enviado por
enviada por:
rodr_aeh
cifra enviada
sem correções
Cifras Cancelar Versão de Impressão
cifras

Lourenço e Lourival - Caminheiro

Tom:

  e|---9--9---10-10-10---10--9---7-7/10---13-13-12-12-10-10--9--9--8-8-7-7/9---13-13-12-12-12--12--9-10-| 
B|--10-10--12-12-12---12-10—9-9/12--15-15-13-13-12-12-10-10-9-9-8-8/10--15-15-13-13-13-13-10-12-10-10-| 
G|----------------------------------------------------------------------------------------------------| 
D|----------------------------------------------------------------------------------------------------| 
A|----------------------------------------------------------------------------------------------------| 
E|----------------------------------------------------------------------------------------------------| 

-9--9---12-12-10-10--9--9--7----7-7-7/9---7-7---7-7-7/9---7-7/-9—9—9--| 
-13-13-12-12-10-10-8----8-8-8/10-8-8---8-8-8/10--8-8/10--10--10-------| 
----------------------------------------9-----------------9-----------| 
----------------------------------------------------------------------| 
----------------------------------------------------------------------| 
----------------------------------------------------------------------| 
  

top 5 | lourenço e lourival
top sertanejo
Outras músicas do artista letras do(a) Lourenço e Lourival
Top cifras » Top artistas »
Anuncie Termos de Uso Política de Privacidade Material de DivulgaçãoFale Conosco
Petaxxon Comunicação Online
Cifras.com.br - Melhor e mais completo site de cifras e tablaturas do Brasil
Mais de 1 milhão de acordes de músicas cadastradas desde 2003
As informações contidas no nosso site são colaborações de seus usuários e podem conter erros, sendo assim, não nos responsabilizamos sobre nenhuma destas.
R7 Música
close
menos
mais
close
Cor dos acordes:

Cor da letra:

 

save
close
close
 
redimensionar