» Cifras.com.br » Letras de músicas » Notícias » TV Cifras » Guitar Pro » Gospel
Luan Santana

Amar Não é Pecado

Luan Santana Escute esta e outras músicas enquanto navega no Cifras

Ano: 2011 - Album: Luan Santana - Ao Vivo no Rio

Autor:

Formatação

colunas A+ A- cores

Nível

Iniciante

Nível: Iniciante

Transcrição

enviada por Acelot


   Introdução 



 e-------------------------------------------------------------|
 B-----------------0-2-4-------4---5---4---2-------------------| 
 G-----4---4-----1-----------4----------------4-3--------4---4-| 
 D---6---8-----2-----------4-----4---4-------4-4-4-6---6---8---| 
 A----------------------2--------------------------------------| 
 E-4---------0---------------------------2-----------4---------| 



 e-------------------------------------------------------------| 
 B--------0--2-4------4----5---4-----2-------------------------| 
 G------1------------4-----------------------------------------| 
 D----2------------4-----4---4---------------------------------| 
 A---------------2---------------------------------------------| 
 E--0-----------------------------2----------------------------| 




 verso 1 



 e----------------2----2------------------------2--------------| 
 B-------------------------2-----------------------------------| 
 G-------4---4---1--4----4-------4---4-----1--4---4------------| 
 D---------8---4-------------------8---4---------------4-------| 
 A------------------2-------------------------2----------------| 
 E-----4---------0---------2--4------------0---------2---------| 



 e------------------------------2------------------------------| 
 B-----------------0---0--------------2-------2----------------| 
 G------4---4----1---3--------4-----4-------3------------------| 
 D----6---8-----------------4-----4-------4-----4--6-----------| 
 A------------------------2------------------------------------| 
 E--4----------0------------------------2----------------------| 



 e------------------------2----------------2-------------------| 
 B-----------------0---0----------2----------------------------| 
 G------4---4----1---3-------4----------3----------------------| 
 D----6---8--------------------4------4------------------------| 
 A------------------------2---------4--------------------------| 
 E--4----------0------------------2----------------------------| 




 refrão 1 



 e---------2---2------2------2--2---2--------2-----------------| 
 B---------4---4--2-----2-------4---4----0-----0---------------| 
 G---------4---4----------------4---4------1-----1-------------| 
 D------------------4------------------------------------------| 
 A-------2---2------------4------------------------------------| 
 E----------------2----------4----4------0---------------------|  (3 VEZES) 



 e---------2---2------2------2--2---2--------------------------| 
 B---------4---4--2-----2-------4---4--------------------------| 
 G---------4---4----------------4---4--------------------------| 
 D------------------4--------------------2---------------------| 
 A-------2---2------------4------------------------------------| 
 E----------------2----------4----4------0---------------------| 



  frase do refrão 2 



 e----------------------0--------------------------------------| 
 B----------------------0--------------------------------------| 
 G------------4-----4---1--------------------------------------| 
 D---------6-----8------2--------------------------------------| 
 A----------------------2--------------------------------------| 
 E------4---------------0--------------------------------------| 




 solo do final 



 e-------------------------------------------------------------| 
 B--------------2--2/4--4--5--4--2---------------------2--2/4--| 
 G--4--3--4--4---------------------4--3--1--4--3--4--4---------| 
 D-------------------------------------------------------------| 
 A-------------------------------------------------------------| 
 E-------------------------------------------------------------| 




 e-------------------------------------------------------------| 
 B--4--5--4--2---------------------4/7-------------------------| 
 G--------------4--3--4--3--4----------------------------------| 
 D------------------------------4------------------------------| 
 A-------------------------------------------------------------| 
 E-------------------------------------------------------------| 
  

Conseguiu tocar essa música? Ficou legal? Então, mostre para todo mundo no Você Canta, receba notas e comentários. Cante agora

Top cifras » Top artistas »
Anuncie no Cifras Termos de Uso Política de Privacidade Material de DivulgaçãoFale Conosco
Petaxxon
Cifras.com.br - Melhor e mais completo site de cifras e tablaturas do Brasil
Mais de 1 milhão de cifras cadastradas desde 2003
As informações contidas no Cifras.com.br são colaborações de seus usuários e podem conter erros, sendo assim, não se responsabiliza sobre nenhuma destas.
R7 Música
close
 
redimensionar