Cifras e Tablaturas
Luíz Gonzaga

Luíz Gonzaga

Asa Branca Tablatura

Ano: 1947
Compositor : (Luiz Gonzaga / Humberto Teixeira)

Cifras Cancelar Versão de Impressão
cifras

Luíz Gonzaga - Asa Branca

fixar na tela  
Exibindo: vídeo-aula ver clipes redimensionar
  

Intro: G7 C D7 

d|-3-0-2---0---------------------| 
B|-------1---0-1---0-------------| 
G|---------------2---0-2-0---0-0-| 
D|-------------------------2-----| 

Parte A: G C G D7 G 

d|-------0-0-------------0-0-----| 
B|-----0-----0-1-1-----0-----1-0-| 
G|-0-2-------------0-2-----------| 
D|-------------------------------| 

Parte B: G7 C D7 G 

d|---------0-0---------------------------| 
B|-------0-----1-0---1-0-0-----0---------| (2x) 
G|-0-0-2-----------0-------2-2---2-2-0-0-| 
D|---------------------------------------| 



  

cifra enviadacorrigido por:Acelot
enviado porenviada por:Christian.s
top 5 | luíz gonzaga
top forró
Outras músicas do artista letras do(a) Luíz Gonzaga
Top cifras »Top artistas »
Petaxxon Comunicação Online
Cifras.com.br - Melhor e mais completo site de cifras e tablaturas do Brasil
Mais de 1 milhão de acordes de músicas cadastradas desde 2003
As informações contidas no nosso site são colaborações de seus usuários e podem conter erros, sendo assim, não nos responsabilizamos sobre nenhuma destas.
close
menos
mais
close
Cor dos acordes:

Cor da letra:

 

save
close
close
 
redimensionar