» Cifras.com.br » Letras de músicas » Notícias » TV Cifras » Guitar Pro » Gospel
Lynyrd Skynyrd

Free Bird

Lynyrd Skynyrd Escute esta e outras músicas enquanto navega no Cifras

Ano: 1990 - Album: Lynyrd Skynyrd - All Time Greatest Hits

Autor:

Formatação

colunas A+ A- cores

Nível

Expert

Nível: Expert

Transcrição

enviada por miss-tyler


  Free Bird (Lynyrd Skynyrd)  
 
 
Chords used:-  
 
  G  Em  F  C  Dsus4  D  Dsus2  D/F#  Bb5  G(3)  Bb  B5  C5  A5  
--3--0---1--0----3----2----0-----2-----x---3------x---x--x---x--  
--0--0---1--1----3----3----3-----3-----x---3------3---x--x---x--  
--0--0---2--0----2----2----2-----2-----3---4------3---4--5---2--  
--0--2---3--2----0----0----0-----4-----3---5------3---4--5---2--  
--2--2---3--3----x----x----x-----x-----1---5------1---2--3---0--  
--3--0---1--x----x----x----x-----3-----x---3------x---x--x---x--  
                                 T  
 
Key  
 
0h2      hammer from open string to 2nd fret  
2p0      Pull off from 2nd fret to open string  
11/12    Play 11th fret and slide up to 12th  
12\11    Play 12th fret and slide down to 11th  
18bf     Play 18th fret and bend note a full tone  
18bh     Play 18th fret and bend half a tone  
17bf h r Play 17th fret and bend a tone.  Hold, then release.  
o/o      Repeat previous bar  
:  :     Play section between dots again.  
 
 
Intro  
 
  G         F#     Em        F   C    Dsus4 D Dsus4 D  
--3-----|-------|--0---0--|--1---0--|---3---2---3---2------|  
--0-----|-------|--0---0--|--1---1--|---3---3---3---3------|  
--0-----|-------|--0---0--|--2---0--|---2---2---2---2------|  
--0-----|-------|--2---2--|--3---2--|---0---0---0---0------|  
--2-----|-------|--2---2--|--3---3--|---x---x---x---x------|  
--3-----|---2---|--0---0--|--1---x--|---x---x---x---x--0-2-|  
 
(Guitar 1 chords written above tab)  
 
 G           F#             Em           Em  
--------------------------|--------------------------------|  
--------------------------|--------------------------------|  
--------------------------|------------------------0-----0-|  
---0-----0-0---0-------0--|-----2--2---2---2-2-----2p0-----|  
-----2------------0-------|---2----2-2---2-----2-------2---|  
-3-----3-----2------2-----|-0--------0-----------0---------|  
 
 F              C                 Dsus4 D       Dsus4  D  
--------------------------------|----------------------------|  
--------------------------------|------3-----3-----3---------|  
--------0-----------0---------0-|--0h2---0h2---0h2---2---7-/-|  
-----3--3---3-----2---2-3p2-0---|----------------------------|  
---3------3---3-3---------------|----------------------------|  
-1------------------------------|----------------------------|  
 
 
(w/slide)  
 
G              D/F#         Em  
--------------------------|-------------------------------------------|  
--------------------------|-------------------------------------------|  
-/12----11/12--11-----12--|-12-\-11-\-9-\-7-/-11---7-/-9--9-\-7-------|  
--------------------------|-------------------------------------9--9-/|  
--------------------------|-------------------------------------------|  
--------------------------|-------------------------------------------|  
 
 
 F                 C               Dsus4 D  Dsus4 D   Dsus4 D  
---------------------------------|--------------------------------|  
---------------------------------|--------------------------------|  
-----10-10-10\9-----------4-5--7-|-\-5-/-7-----/19\17----18/19-\--|  
-/10------------10-----/5--------|--------------------19----------|  
-------------------10------------|--------------------------------|  
---------------------------------|--------------------------------|  
 
G                D/F#          Em  
-----------------------------|-------------------------|  
-----------------------------|-------------------------|  
-11/12----11/12--11-/--12-12-|--12\11\9--\-4-/-9\7-----|  
-----------------------------|---------------------9-9/|  
-----------------------------|-------------------------|  
-----------------------------|-------------------------|  
 
 F             C              Dsus4 D  Dsus4 D  Dsus4 D Dsus4 D  
-----------------------------|----------------------------------|  
-----------------------------|----------------------------------|  
----10-10\9-----------4-5--7-|-\---5/7-----------7-\--6---7---9/|  
/10---------10------/5-------|--------------------------7---7---|  
---------------10-\----------|----------------------------------|  
-----------------------------|----------------------------------|  
 
 
1st Verse  
 
If I leave here to mor row                   Would you still remember me  
G    D/F#            Em                   F  
--------------------|--------------------|----------------------------|  
--------------------|--------------------|----------------------------|  
--------------------|-7-/-9--9-9-9\8-----|----------------------4-5/7\|  
--------------------|----------------9-9/|10---------------1/2/5------|  
--------------------|--------------------|----------------------------|  
--------------------|--------------------|----------------------------|  
 
                                     Well I must be travelling on  
Dsus4 D Dsus4 D Dsus4 D Dsus4 D    G              D/F#  
--------------------------------|--------------------------------|  
--------------------------------|--------------------------------|  
-6/7-/-19-19\17----18/19--------|-11/12--------------------------|  
----------------19--------------|--------------------------------|  
--------------------------------|--------------------------------|  
--------------------------------|--------------------------------|  
 
  now               cause theres too many places I've got to see  
 Em                 F             C  
-------------------|---------------------------------------------|  
-------------------|---------------------------------------------|  
-7-/-9-----9\8-----|-----------------------------4----5--/----7--|  
---------------7-7/|-10\9/10-----\----7----1-\-5-----------------|  
-------------------|---------------------------------------------|  
-------------------|---------------------------------------------|  
 
                                       But if I stay here with you  
Dsus4 D Dsus4 D Dsus4 Dsus4 D       G           D/F#  
-----------------------------------|------------------------------|  
-----------------------------------|------------------------------|  
-7\6/7\6/7--/---19--19\18/19\18/19-|-11/12-12---------------------|  
-----------------------------------|------------------------------|  
-----------------------------------|------------------------------|  
-----------------------------------|------------------------------|  
 
girl --                   Things just couldn't be the same  
 Em                    F              C  
---------------------|-------------------------------------|  
---------------------|-------------------------------------|  
-7-/-9----9--8-------|-------------------------4-5----7----|  
---------------9--9-/|-10-\--------------1/5---------------|  
---------------------|-------------------------------------|  
---------------------|-------------------------------------|  
 
                                     Cause I'm as a free as a bird  
 Dsus4 D Dsus4 D Dsus4 D Dsus4 D   G  
--------------------------------|----------------------------------|  
--------------------------------|----------------------------------|  
-\6-/7-----------7\6---7----9-9/|-/12---------------12\11------12--|  
---------------------7----7-----|----------------------------------|  
--------------------------------|----------------------------------|  
--------------------------------|----------------------------------|  
 
  now                          and this bird you cannot change  
Em                          F               C  
--------------------------|------------------------------------|  
--------------------------|------------------------------------|  
-12\11\9--9-\----9\7------|------------------------------------|  
---------------------9-9-/|-10---------------------9-10-/-12---|  
--------------------------|-----------------3-/-10-------------|  
--------------------------|------------------------------------|  
 
               oh.....              and the bird you cannot change  
Dsus4 D Dsus4 D Dsus4 D Dsus4 D  F             C  
-------------------------------|-----------------------------------|  
-------------------------------|-----------------------------------|  
-------------------------------|-/10---10\9------------9---/---19--|  
-12\11/12--12\11/12\11/12------|-----------10----------------------|  
-------------------------------|--------------10\5-5/10------------|  
-------------------------------|-----------------------------------|  
 
                                             and this bird you cannot..  
D                                           F          C  
-------------------------------------------|---------------------------|  
------------------------------17/(24)------|---------------------------|  
-19\17--19\17--19\17--19\17----------------|-8/10-10\9-----------------|  
------19-----19-----19-----19---------(24)\|----------10-------9-10-10/|  
-------------------------------------------|------------10-5/10--------|  
-------------------------------------------|---------------------------|  
 
..ange               Lord knows I cant  change  
D                 F          C                   D  
---------------|--------------------------------|-------------------|  
---------------|--------------------------------|-------------------|  
--------------/|--10---10\9---------4/5\---7----|-\6/7--7\6/7\6/7-7/|  
-/12----\--7---|-----------10-------------------|-------------------|  
---------------|-------------10\7/10------------|-------------------|  
---------------|--------------------------------|-------------------|  
 
G              D/F#       Em  
------------------------|----------------------------|  
------------------------|----------------------------|  
-/12--11/12\11-------12-|-\11\9\7/9/11--7/9--9\8-----|  
------------------------|------------------------9-9/|  
------------------------|----------------------------|  
------------------------|----------------------------|  
 
F              C            Dsus4 D Dsus4 D Dsus4 D Dsus4 D  
---------------------------|--------------------------------------|  
---------------------------|--------------------------17/-22------|  
-----10-10\9--------4-5--7-|-\6-/7--/--19---19\-17----------------|  
-/10--------10---/5--------|-----------------------19--------(24)\|  
--------------10-----------|--------------------------------------|  
---------------------------|--------------------------------------|  
 
G               D/F#       Em  
-------------------------|-------------------------------|  
-------------------------|-------------------------------|  
-11/12---11/12--11---12--|-12\11\9\7/9\7--4/9-9-9\7------|  
-------------------------|--------------------------9-9-/|  
-------------------------|-------------------------------|  
-------------------------|-------------------------------|  
 
F                 C             Dsus4 D Dsus4 D ......  
-------------------------------|-----------------------|  
-------------------------------|-----------------------|  
----10-10-10\9---------4-5-/-7-|--\6/7-7---7\6---7---9/|  
/10------------10----5---------|---------------7---7---|  
------------------10-----------|-----------------------|  
-------------------------------|-----------------------|  
 
2nd Verse  
 
 Bye bye baby its been sweet    now  yeah yeah  
G      D/F#                  Em  
----------------------------|------------------------|  
----------------------------|------------------------|  
-11/12----------------------|-7-/-9---------9-\8-----|  
----------------------------|--------------------9-9-|  
----------------------------|------------------------|  
----------------------------|------------------------|  
 
 
 
  Though this a feel in I can-t change  
 F                  C                   Dsus4 D Dsus4 D Dsus4 D Dsus4 D  
---------------------------------------|------------------------------|  
---------------------------------------|------------------------------|  
-----------------------4--5-/---7------|-\6-/7--/--19-19\17----18/19--|  
-9/10---------------1/-----------------|--------------------19--------|  
---------------------------------------|------------------------------|  
---------------------------------------|------------------------------|  
 
 
   A please dont take  it so bad- ly  
G                D/F#                 Em  
------------------------------------|------------------|  
------------------------------------|------------------|  
-11/12----------12------------------|-7--9-----9\8-----|  
------------------------------------|--------------9-9/|  
------------------------------------|------------------|  
------------------------------------|------------------|  
 
 
  cause the Lord knows I'm to blame  
F                C                 Dsus4 D Dsus4 D Dsus4 D Dsus4 D  
----------------------------------|----------------------------------|  
----------------------------------|----------------------------------|  
----------------------4--5--/---7-|-\6/7\6/7---/--19-19\18/19\18/19\-|  
----------------------------------|----------------------------------|  
/10\9/10---------5/---------------|----------------------------------|  
----------------------------------|----------------------------------|  
 
 
 But if I  stay here with you     girl  
G          D/F#               Em  
-----------------------------|-------------------------|  
-----------------------------|-------------------------|  
-11/12-----------------------|-7-/-9----------9\7------|  
-----------------------------|--------------------9--9/|  
-----------------------------|-------------------------|  
-----------------------------|-------------------------|  
 
 
  things just couldn't be the same  
F                C                 Dsus4 D Dsus4 D Dsus4 D Dsus4 D  
----------------------------------|-----------------------------------|  
----------------------------------|-----------------------------------|  
----------------------4--5-----7--|-\6/7-/-19-19\17----19\17-19\17-19\|  
-/10-\9/10-\----------------------|-----------------19----------------|  
-----------------5----------------|-----------------------------------|  
----------------------------------|-----------------------------------|  
 
 
cause I'm as free  as a bird        now  
G            D/F#            Em  
----------------------------|-----------------------|  
----------------------------|-----------------------|  
11/12-------------------12--|-12\11\9-------9\7-----|  
----------------------------|-------------------9-9/|  
----------------------------|-----------------------|  
----------------------------|-----------------------|  
 
 
and this bird you cannot change            oh...  
F            C                   Dsus4 D Dsus4 D Dsus4 D Dsus4 D  
--------------------------------|-------------------------------|  
--------------------------------|-------------------------------|  
------------------4---5----7----|-\6/7-----7-\6/7\6-7\6/7\5----/|  
/10-----------------------------|-------------------------------|  
-------------5/-----------------|-------------------------------|  
--------------------------------|-------------------------------|  
 
 
      and a bird  you cannot change  
F               C  
-------------------------------------|  
-------------------------------------|  
/10---10\9------------5--------------|  
----------10-------------5----/------|  
------------10\--5/------------------|  
-------------------------------------|  
 
 
 
D  
-------------------------------------------------------------|  
-------------------------------------------------------------|  
-19\17--19\17--19\17--17--17/19-17/19\1719--17--17--17--17/19|  
------19-----19-----19--19----------------19--19--19--19-----|  
-------------------------------------------------------------|  
-------------------------------------------------------------|  
 
        and this bird you cannot change  
F                  C                     D  
----------------------------------------|------------------|  
----------------------------------------|------------------|  
/10-----10\9---------------4-5\--4/-----|/7--7--7\--2--/---|  
------------10--------------------------|------------------|  
--------------10\--5-/--10--------------|------------------|  
----------------------------------------|------------------|  
 
 
   Lord knows    I cant change  
F       C                      D  
------------------------------|------------------------------------------|  
------------------------------|------------------------------------------|  
/10-10\9-------------10---/---|-19\17--17--17--17--17--17--17/19-19--19--|  
--------10---------10---------|------19--19--19--19--19--19--------19--19|  
----------10\-5-/10-----------|------------------------------------------|  
------------------------------|------------------------------------------|  
 
 
      Lord  help me  I cant   
F           C                 D D D D D D D D D D D Detc  
-----------------------------|----------------------------|  
-----------------------------|----------------------------|  
/10---10\9------------4-5\-6/|-7\6/7\6/7\6/7\6/7\6/7etc...|  
----------10-----------------|----------------------------|  
------------10\-5-/10--------|----------------------------|  
-----------------------------|----------------------------|  
 
(Play fast 8 strums per bar.)  
   
 
G          Bb5                 C  
              Lord      I can't change----  
 
            G           Bb5        C  
Won't you fly   - - - -    - - - - Free      bird     yeah  
--------------------------------------------------------------15----|  
-----------------------------------------------------------15----15-|  
--------------------------------------------------------------------|  
--------------------------------------------------------------------|  
--------------------------------------------------------------------|  
--------------------------------------------------------------------|  
 
Into all 152 bars of Guitar Solo:-  
the solo sounds better if you just improvise it following a basic pattern and  
not doing it the same way twice. it's based on a pentatonic minor scale in  
G(15th fret) . good luck with it.  
Letters above tab indicate rhythm guitar chords  
G                         Bb5  
------15---------------------|-----------------------------|  
-18bf----18bf--18bf---18--15-|-18-18bf-r-15--18bf--18--15--|  
-----------------------------|-----------------------------|  
-----------------------------|-----------------------------|  
-----------------------------|-----------------------------|  
-----------------------------|-----------------------------|  
C  
-------------18--------18--------|-18------18-----------15-----|  
-18bf--18bf------18bf------18bf--|----18bf----18bf----------15-|  
---------------------------------|-----------------/16---------|  
---------------------------------|-----------------------------|  
---------------------------------|-----------------------------|  
---------------------------------|-----------------------------|  
 
G                              Bb5  
------15------------------------|--------------------------------|  
-18bf----18bf---18bf---18--15---|--18--18bf-r-15--18bf---18--15--|  
--------------------------------|--------------------------------|  
--------------------------------|--------------------------------|  
--------------------------------|--------------------------------|  
--------------------------------|--------------------------------|  
 
 
C                                                 |-hold bend-----  
-------------18--------18-------|--18-------18------18------18---|  
-18bf--18bf------18bf------18bf-|------18bf----18bf-----18-------|  
--------------------------------|--------------------------------|  
--------------------------------|--------------------------------|  
--------------------------------|--------------------------------|  
--------------------------------|--------------------------------|  
 
G                          Bb5  
hold bend--------------------------------------------|  
-----18----18----18-----18--|----18----18----18----18-|  
-18-----18----18----18------|-18----18----18----18----|  
----------------------------|-------------------------|  
----------------------------|-------------------------|  
----------------------------|-------------------------|  
----------------------------|-------------------------|  
 
C  
------18------18------18------18-|------18------18------18----------|  
-18bf----18bf----18bf----18bf----|-18bf----18bf----18bf----18-15-18-|  
---------------------------------|----------------------------------|  
---------------------------------|----------------------------------|  
---------------------------------|----------------------------------|  
---------------------------------|----------------------------------|  
 
G                                                           Bb5  
-------------------------------------------------------------|---------|  
-18bf-p15-18-18bf-p15-18-18bf-p15-18-18bf-p15-18-18bf-p15-18-|---------|  
-------------------------------------------------------------|---o/o---|  
-------------------------------------------------------------|---------|  
-------------------------------------------------------------|---------|  
-------------------------------------------------------------|---------|  
 
C  
---------|---------------------------------------------|  
---------|-p15-18-18bf-p15-18-18bf-p15-18-18bf---p15---|  
---o/o---|---------------------------------------------|  
---------|---------------------------------------------|  
---------|---------------------------------------------|  
---------|---------------------------------------------|  
 
G                                          
----------------------------------------|  
-18bf---18bf--18p15-----15-18p15-----15-|  
-------------------17bf----------17bf---|  
----------------------------------------|  
----------------------------------------|  
----------------------------------------|  
 
Bb                                                       C  
---------------------------------------------------------|---------|  
-18p15------15-18p15------15-18p15------15-18p15------15-|---------|  
-------17bf----------17bf----------17bf----------17bf----|---o/o---|  
---------------------------------------------------------|---------|  
---------------------------------------------------------|---------|  
---------------------------------------------------------|---------|  
 
 
----------------------------------------------------|  
-18p15------15-18p15------15-18p15------15----------|  
-------17bf----------17bf----------17bf----15-------|  
----------------------------------------------17p15-|  
----------------------------------------------------|  
----------------------------------------------------|  
 
G                                  Bb  
-----------------------------------|--------------------------------------|  
-----------------------------------|--------------------------15-18----18-|  
---15---------15--15--17p15-17p15--|---15-17p15-17p15--15-17bf-----17bf---|  
-17---17p15-17--17-----------------|-17--------------17-------------------|  
-----------------------------------|--------------------------------------|  
-----------------------------------|--------------------------------------|  
 
C          |-hold bend--------- r  
----------------------------|-------------------------------|  
-------------------18----18-|-----18-----18----18----18-----|  
-17bf--17bf-17--17----17----|-17-----17bf--17bf--17bf--17bf-|  
----------------------------|-------------------------------|  
----------------------------|-------------------------------|  
----------------------------|-------------------------------|  
 
 
G                                Bb     C  
---------------------------------|-----|-------|--------------------------|  
-18-----18----18----18----18-----|-----|----18-|-----18----18----18-------|  
----17bf--17bf--17bf--17bf--17bf-|-o/o-|-o/o---|-17bf--17bf--17bf--17p15--|  
---------------------------------|-----|-------|------------------------17|  
---------------------------------|-----|-------|--------------------------|  
---------------------------------|-----|-------|--------------------------|  
 
G                            Bb  
-----------------------------|---------------------------|  
-----------------------------|---------------------------|  
-15--------15--------15------|----15--------15-----------|  
---17p15-----17p15-----17p15-|------17p15-----17p15---15-|  
--------17--------17---------|-17--------17--------17----|  
-----------------------------|---------------------------|  
 
C  
------------------------------------|--------------------------------------|  
------------------------------------|--------------------------------------|  
---------------------------------15-|--------------------------------------|  
-17--15----15-17p15--15-17p15-------|-17--15----15-17p15-17p15-17p15----15-|  
--------17---------17---------17----|--------17----------------------17----|  
------------------------------------|--------------------------------------|  
 
G                         Bb  
--------------------------|-----------------------------------|  
--------------------------|-----------------------------------|  
--------------------------|-----------------------------------|  
-17--15----15-17-17p15----|-17--15----15-17p15--15-17p15---15-|  
--------17-------------17-|--------17---------17--------17----|  
--------------------------|-----------------------------------|  
 
C  
------------------------|-------------------------|  
------------------------|-------------------------|  
----------15---------15-|----------15-------17bf--|  
-17--15-----17-15-------|-17-15------17--15-------|  
-------17---------17----|-------17----------------|  
------------------------|-------------------------|  
 
G  
--------------------------------------------|  
--------------------------------------------|  
-17p15-----17bf--17p15------17bf-17p15------|  
------17p15-----------17p15-----------17p15-|  
--------------------------------------------|  
--------------------------------------------|  
 
Bb  
-------------------------------------------|  
-------------------------------------------|  
-17bf-17p15------17bf-17p15-----17bf-17p15-|  
-----------17p15-----------17p15-----------|  
-------------------------------------------|  
-------------------------------------------|  
 
C                                        |-hold bend  
-------------------------------------------|----------------|  
-------------------------------------------|----------------|  
------17bf-17p15------17bf-17p15------17bf-|--(17)-rh---(17)|  
-17p15----------17p15-----------17p15------|----------------|  
-------------------------------------------|----------------|  
-------------------------------------------|----------------|  
 
G                     Bb5                  C  
--------3-------------|--------------------|---------6-----6-----|  
-----------6bf---6-3--|--6-6bf-p3-6bf--6-3-|-6--6bf----6bf---6bf-|  
-----/4---------------|--------------------|---------------------|  
-17\------------------|--------------------|---------------------|  
----------------------|--------------------|---------------------|  
----------------------|--------------------|---------------------|  
 
C                     G                    Bb  
--6-------------3----|------3--------------|---------------------|  
----6bf-6bf-------3--|--6bf---6bf--6--6--3-|-6--6bf-p3-6bf--6--3-|  
------------/4-------|---------------------|---------------------|  
---------------------|---------------------|---------------------|  
---------------------|---------------------|---------------------|  
---------------------|---------------------|---------------------|  
 
 
C             4th string-(2)-(3)-(4)-(5) G                Bb  
----------6-----6-----|---6---6---6-----|-----------------|---------------|  
-6bf--6bf---6bf---6bf-|---6bf-6bf-6bf-6-|-8--8--6-8--8--6-|-8--8-6-8--8-6-|  
----------------------|-----------------|-----------------|---------------|  
----------------------|-----------------|-----------------|---------------|  
----------------------|-----------------|-----------------|---------------|  
----------------------|-----------------|-----------------|---------------|  
 
C                               G               Bb  
-----|-------------------------|----------------|------6-7-8-8bf-p6-----|  
-----|-8--8bfh--8bfh--8bfh-p-6-|--8--8-6--8-8-6-|-8--8--------------8-6-|  
-o/o-|-------------------------|----------------|-----------------------|  
-----|-------------------------|----------------|-----------------------|  
-----|-------------------------|----------------|-----------------------|  
-----|-------------------------|----------------|-----------------------|  
 
C                                      G  
---------------|-----------------------|-3----3--3--5p3---|  
-8--8-6-8--8-6-|-8--8bfh--8bfh-8bfh-/5-|----5-----------5-|  
---------------|-----------------------|------------------|  
---------------|-----------------------|------------------|  
---------------|-----------------------|------------------|  
---------------|-----------------------|------------------|  
 
Bb                C                                  
--3---3-3-3-5p3---|-3---3----3--3--|-(3)-----3-6p3-|  
----5-----------5-|---5----5-------|------/5-------|  
------------------|----------------|---------------|  
------------------|----------------|---------------|  
------------------|----------------|---------------|  
------------------|----------------|---------------|  
  

top cifras lynyrd skynyrd
top cifras rock clássico
ver mais cifras desse artista var letras desse artista
Top cifras » Top artistas »
Anuncie no Cifras Termos de Uso Política de Privacidade Material de DivulgaçãoFale Conosco
Petaxxon Comunicação Online
Cifras.com.br - Melhor e mais completo site de cifras e tablaturas do Brasil
Mais de 1 milhão de cifras cadastradas desde 2003
As informações contidas no Cifras.com.br são colaborações de seus usuários e podem conter erros, sendo assim, não se responsabiliza sobre nenhuma destas.
R7 Música
close
 
redimensionar