» Cifras.com.br » Letras de músicas » Notícias » TV Cifras » Guitar Pro » Gospel

Início » Heavy Metal » Marilyn Manson » »

Sweet Dreams

Marilyn Manson

Sweet Dreams

Marilyn Manson Escute esta e outras músicas enquanto navega no Cifras

Autor:

Tom

Formatação

colunas A+ A- cores

Nível

Expert

Nível: Expert

Transcrição

enviada por therox


  Guitar 1-
----------------------------------------------------------------|
----------------------------------------------------------------|
----------------------------------------------------------------|
---------5-------6-------5--------------------------------------|
-3---3-------3-------3-------3-----------6-/-8-----------5-/-6--|
---------------------------------4---4-----------3---3----------|



Riff-B
1st Chorus/2nd Verse/3rd Chorus-
Guitar 2
----------------------------------------------------------------|
----------------------------------------------------------------|
----------------------------------------------------------------|
----------------------------------------------------------------|
10-------------------------------6---------------5--------------|
-8-------------------------------4---------------3--------------|

Verse/Chorus BASS-
----------------------------------------------------------------|
----------------------------------------------------------------|
----------------------------------------------------------------|
-8-------------------------------4---------------3--------------|

Heavily distorted Interlude; (Guitars 1 & 2/Bass)
Guitar 1-
----------------------------------------------------------------
----------------------------------------------------------------
---------------------------------5-5-5-5-5-5-5-5----------------
-6-6-6-6-6-6-6-6-6-6-6-6-6-5-5-5-5-5-5-5-5-5-5-5-6-6-6-6-6-6-6-5
-6-6-6-6-6-6-6-6-6-6-6-6-6-5-5-5-3-3-3-3-3-3-3-3-6-6-6-6-6-6-6-5
-4-4-4-4-4-4-4-4-4-4-4-4-4-3-3-3-----------------4-4-4-4-4-4-4-3

Guitar 2-
----------------------------------------------------------------
----------------------------------------------------------------
---------------------------------5-5-5-5-5-5-5-5----------------
-6-6-6-6-6-6-6-6-6-6-6-6-6-5-5-5-5-5-5-5-5-5-5-5-6-6-6-6-6-6-6-5
-6-6-6-6-6-6-6-6-6-6-6-6-6-5-5-5-3-3-3-3-3-3-3-3-6-6-6-6-6-6-6-5
-4-4-4-4-4-4-4-4-4-4-4-4-4-3-3-3-----------------4-4-4-4-4-4-4-3

Bass-
----------------------------------------------------------------
----------------------------------------------------------------
---------------------------------3-3-3-3-3-3-3-3----------------
-4-4-4-4-4-4-4-4-4-4-4-4-4-3-3-3-----------------4-4-4-4-4-4-4-3
...............................................................

Guitar 1-
--------------------------------|
--------------------------------|
--------------------------------|
-6-6-6-6-6-6-6-6-5------(5)-----|
-6-6-6-6-6-6-6-6-5------(5)-----|
-4-4-4-4-4-4-4-4-3------(3)-----|

Guitar 2-
------------------------------------------------|
------------------------------------------------|
------------------------------------------------|
-6-6-6-6-6-6-6-6-5--------------5---------------|
-6-6-6-6-6-6-6-6-5--------------3---------------|
-4-4-4-4-4-4-4-4-3--------------0---------------|

Bass-
--------------------------------|
--------------------------------|
--------------------------------|
-4-4-4-4-4-4-4-4-3--------------|

After that Interlude, Guitar 1 drops out until the 2nd chorus.
When the 2nd chorus hits Riff-A is played 4 times by guitar one.
Guitar 2 plays Riff-B throughout the 2nd verse/chorus, but 
before the verse starts a slightly different version of Riff-A
is played 4 times, and the first note struck at the same time as
the last note of the Interlude on Guitar 2 (a C5 power chord).
It uses a sweeping wah effect which is created by steadily 
tapping the wah pedal as each note is struck. I'll use 2 symbols
UNDER the bar to display how the pedal is used:
+  Tap
_  Release

Guitar 2
----------------------------------------------------------------|
----------------------------------------------------------------|
----------------------------------------------------------------|
---------5-------6-------5--------------------------------------|
-3---3-------3-------3-------3-----------6---8-----------5---6--|
---------------------------------4---4-----------3---3----------|
 + _ + _ + _ + _ + _ + _ + _ + _ + _ + _ + _ + _ + _ + _ + _ + _

After the second verse/chorus are over the second Interlude comes
in. It as well uses a wah pedal and I will, again, uses the same
symbols below the bar as the riff right up there ^. During this riff,
Guitar 2 plays a variation of Riff-B.

Interlude 2
Guitar 1-
                     1/2     V                       1/2     V          
----------------------------------------------------------------
----------------------------------------------------------------
-5---3-------5-------7^-----(7)--5---3-------5-------7^-----(7)-
----------------------------------------------------------------
----------------------------------------------------------------
----------------------------------------------------------------
 + _ +     _ +     _ +       _   + _ +     _ +     _ +       _


Guitar 2-
----------------------------------------------------------------
----------------------------------------------------------------
----------------------------------------------------------------
----------------------------------------------------------------
10--------------------------------------------------------------
-8--------------------------------------------------------------
................................................................

Guitar 1-
                     1/2     V                       1/2 (hold)
----------------------------------------------------------------|
-----------------------------------------------------6^---------|
-5---3-------5-------7^-----(7)--5---3-------5------------------|
----------------------------------------------------------------|
----------------------------------------------------------------|
----------------------------------------------------------------|
 + _ +     _ +     _ +       _   + _ +     _ +     _ +         _

Guitar 2-
----------------------------------------------------------------|
----------------------------------------------------------------|
----------------------------------------------------------------|
----------------------------------------------------------------|
10-------------------------------6----------------5-------------|
-8-------------------------------4----------------3-------------|

Then comes the ("Hold your head up")
                      "Movin' on"
               ("Keep your head up")
                      "Movin on"...
..part. That uses a lot of feedback at a varied degree of
   pitches which seem to change quite frequently.
After he screams out "MOVIN ON!" comes the solo with some distortion
and a whiny ring to it-

Guitar 1-
                             full    V    1/2                            
------------------11---------(8)-------------------------------------
-11--------13------------11--11^---(11)---(8)------------------------
------------------------------------------11^------------------------
--------------------------------------------------------10-(10)-8-10-
---------------------------------------------------------------------
---------------------------------------------------------------------

    1/2   V 1/2 V 1/2 V                        1/2.......V          
---------------------------------------------------------------------
---------------------------------------------------------------------
---(0)------(0)---(0)--------------------7h8-----------------------7-
----------------------------10----8--10---------------------10-10----
----9^---(9)-9^(9)-9^(9)-9---------------------8^-------(8)----------
---------------------------------------------------------------------

       1/2   V       1/2.......V  full                     1/2 (hold)
-----------------------------------8---------11--------13--13^-------|
-------4-------------7------------11^---(11)-------------------------|
-7-----7^---(7)-----10^------(10)------------------------------------|
---------------------------------------------------------------------|
---------------------------------------------------------------------|
---------------------------------------------------------------------|
.. that may seem somewhat hard to read, so just take a moment and look
    over while slowly playing each note. It shouldn't take too long too
    long to get the hang of.

Right after that, Guitar 1 once again cuts into Riff-A, but not quite 
as loudly this time.
During the third verse Guitar 2 plays a higher-pitched variation
of Riff-B, and breaks into Riff-B during the 3rd chorus.

3rd verse:
Guitar 2-
-8--------------------------------------------------------------|
---------------------------------9---------------8--------------|
----------------------------------------------------------------|
----------------------------------------------------------------|
----------------------------------------------------------------|
----------------------------------------------------------------|

After the 3rd chorus is done, back to Interlude 2, blah, blah, blah...
bunch of feed back..."I'm gonna use you,
                              And abuse you.
                      I gotta know what's 
                              In-side you..."
..it ends with the whiny ring of the 7th fret at the G-string.
  

top cifras marilyn manson
top cifras heavy metal
ver mais cifras desse artista var letras desse artista
Top cifras » Top artistas »
Anuncie no Cifras Termos de Uso Política de Privacidade Material de DivulgaçãoFale Conosco
Petaxxon Comunicação Online
Cifras.com.br - Melhor e mais completo site de cifras e tablaturas do Brasil
Mais de 1 milhão de cifras cadastradas desde 2003
As informações contidas no Cifras.com.br são colaborações de seus usuários e podem conter erros, sendo assim, não se responsabiliza sobre nenhuma destas.
R7 Música
close
 
redimensionar