» Cifras.com.br » Letras de músicas » Notícias » TV Cifras » Guitar Pro » Gospel
Megadeth

Trust

Megadeth Escute esta e outras músicas enquanto navega no Cifras

Ano: 1997 - Album: Warchest Box Set (4CDs/1DVD)

Autor:

Tom

Formatação

colunas A+ A- cores

Nível

Avançado

Nível: Avançado

Transcrição

anônimo


   
Standard Tuning 
 
Intro (Synth arranged for Guitar) 
------------------------------------ 
------------------------------------ 
-9---------------9------7-----/12--- 
------------------------------------  2x 
-7---------------7------5-----/10--- 
------------------------------------ 
 
Gtr 1 
-------------------------------------------------------------- 
-------------------------------------------------------------- 
-9-------------5---------------2----------------------------9- 
-9-------------5---------------2----------------3-----------9- 
-7-------------3---------------0----------------3-----------7- 
------------------------------------------------1------------- 
 
-------------------------------------------------------------- 
-------------------------------------------------------------- 
------------5---------------2----------------3--------------9- 
------------5---------------2----------------3--------------9- 
------------3---------------0----------------1--------------7- 
-------------------------------------------------------------- 
 
-------------------------------------------------------------- 
-------------------------------------------------------------- 
-9-------------5---------------2----------------------------9- 
-9-------------5---------------2----------------3-----------9- 
-7-------------3---------------0----------------3-----------7- 
------------------------------------------------1------------- 
 
 
--------------------------------------------------------------------------------- 
--------------------------------------------------------------------------------- 
-9-------------5---------------2------------------------------------------------- 
-9-------------5---------------2----------------3-------------------------------- 
-7-------------3---------------0----------------3-------------------------------- 
------------------------------------------------1--1-1-1-1-1-1-1-1-1-1-1-1-1-1-1- 
							     pm . . . . . . . . . . . . . . . 
Gtr 2 
-------------------------------------------------------------- 
-------------------------------------------------------------- 
-9~~~~~~~~~~~~~~-9~~~~~~~~~~~~~~~-9--------------------------- 
-------------------------------------------------------------- 
-------------------------------------------------------------- 
-------------------------------------------------------------- 
 
-----------------------12~~~~~----------------------------------------- 
-----12~~~~~-----------------------------112~~~~~---------------------- 
------------9~~~~~9~~~~~-------9~~~9~~~~~--------9~~~9/10-10-10-9-9--- 
----------------------------------------------------------------------- 
----------------------------------------------------------------------- 
----------------------------------------------------------------------- 
 
------------------------12~~~~~---------------------------------------- 
-------12~~~~~---------------------------112~~~~~---------------------- 
-9~~~~~-------9~~~9~~~~~-------9~~~9~~~9~--------9~~~9/12-12~~~12~~~~~ 
----------------------------------------------------------------------- 
----------------------------------------------------------------------- 
----------------------------------------------------------------------- 
 
------------------12~~~-------------12~~~------------12b13~~~~~~~~~~~~~~~~12~~~~12~~~~12~~~~12~~ 
-------12----------------12~~~~~------------12--------------------------------------------------- 
-9~~~9~-------9--------9--------9--------99--------9--------------------------------------------- 
------------------------------------------------------------------------------------------------- 
------------------------------------------------------------------------------------------------- 
------------------------------------------------------------------------------------------------- 
 
Synth 
------------------------------------------------------------- 
------------------------------------------------------------- 
-9--------------------------------9------110----/12---9------ 
------------------------------------------------------------- 
-7--------------------------------7------88-----/10---7------ 
------------------------------------------------------------- 
 
------------------------------------------------------------- 
----------------------------------5-------------------------- 
-9---------------------------------------77-----/12---9------ 
------------------------------------------------------------- 
-7--------------------------------7------55-----/10---7------ 
------------------------------------------------------------- 
 
------------------------------------------------------------- 
------------------------------------------------------------- 
-9--------------------------------9------110-----12---9------ 
------------------------------------------------------------- 
-7--------------------------------7------88------10---7------ 
------------------------------------------------------------- 
 
----------------------------------------------------------------------------- 
----------------------------------------------------------------------------- 
-9--------------------------------9------110-----12---14--------------------- 
----------------------------------------------------------------------------- 
-7--------------------------------7------88------10---12--------------------- 
----------------------------------------------------------------------------- 
 
 
Gtr 1 & 2 (Distorted) 
----------------------------------------------------------------- 
----------------------------------------------------------------- 
----------------------------------------------------------------- 
----------------------------------------------------------------- 
---7---------7---------7----------7----------7---------5--------- 
-0---8-7~~~0---8---7-0----8-7~~~0---8-7~~~~0---6---5-0---0-6-8~~~ 
 
----------------------------------------------------------------- 
----------------------------------------------------------------- 
----------------------------------------------------------------- 
----------------------------------------------------------------- 
---7---------7---------7----------7----------7---------5--------- 
-0---8-7~~~0---8---7-0----8-7~~~0---8-7~~~~0---6---5-0---0-6-8-0- 
 
Verse 
-------------------------------------------------------------------- 
-------------------------------------------------------------------- 
---------------------------------2---------------------------------- 
-9---------------5---------------2----------------3---------------9- 
-7---------------3---------------0----------------3---------------7- 
-----0-0-0-0-0-0-----0-0-0-0-0-0-----0-0-00-0-0-0-1---0-0-0-0-0-0--- 
   pm. . . . . .     . . . . . .     . . . . . .     . . . . . . 
 
-------------------------------------------------------------------- 
-------------------------------------------------------------------- 
-------------------------------------------------------------------- 
-----------------5-------4-------2----------------3---------------9- 
-----------------3-------2-------0----------------3---------------7- 
---0-0-0-0-0-0-0-----0-0-----0-0-----0-0-00-0-0-0-1---0-0-0-0-0-0--- 
pm . . . . . . .     . .     . .     . . . . . .     . . . . . . 
 
-------------------------------------------------------------------- 
-------------------------------------------------------------------- 
---------------------------------2---------------------------------- 
-9---------------5---------------2----------------3---------------9- 
-7---------------3---------------0----------------3---------------7- 
-----0-0-0-0-0-0-----0-0-0-0-0-0-----0-0-00-0-0-0-1---0-0-0-0-0-0--- 
   pm. . . . . .     . . . . . .     . . . . . .     . . . . . . 
 
-------------------------------------------------------------------- 
-------------------------------------------------------------------- 
-------------------------------------------------------------------- 
-----------------5-------4---7---2----------------3----------------- 
-----------------3-------2---5---0----------------3----------------- 
---0-0-0-0-0-0-0-----0-0---0---0-----0-0-00-0-0-0-1---1-1-1-1-1-1-1- 
pm . . . . . . .     . .   .   .     . . . . . .     . . . . . . .  
 
(2nd time) 
-------------------------------------------------------------------- 
-------------------------------------------------------------------- 
-------------------------------------------------------------------- 
-----------------5-------4---7---2----------------3----------------- 
-----------------3-------2---5---0----------------3----------------- 
---0-0-0-0-0-0-0-----0-0---0---0-----0-0-00-0-0-0-1---1-1-1-1-1-13- 
pm . . . . . . .     . .   .   .     . . . . . .     . . . . .    
 
Gtr 3 (during verse bars (5-16)) 
-------------------------------------------------------------------- 
-----------------------------------------------------------------12~ 
-----------------------------------------------------------------12~ 
-------------------------------------------------------------------- 
-------------------------------------------------------------------- 
-------------------------------------------------------------------- 
 
-------------------------------------------------------------------- 
~~~-------------------------------------------------------------12~ 
~~~------------------------------5~~~~~-------------------------12~ 
-------------------------------------------------------------------- 
-------------------------------------------------------------------- 
-------------------------------------------------------------------- 
 
-------------------------------------------------------------------- 
~~~--------------------------7------------------------------------- 
~~~--------------9~~~~---7-------5~~~~~---------10~~~~~~~~~~~~~---- 
-------------------------------------------------10~~~~~~~~~~~~~---- 
-------------------------------------------------------------------- 
-------------------------------------------------------------------- 
 
 
Chorus (Gtr 1 & 2) 
----------------------------------------------------------------- 
----------------------------------------------------------------- 
----------------------------------------------------------------- 
----------------------------------------------------------------- 
---7---------7---------7----------7----------7---------5--------- 
-0---8-7~~~0---8---7-0----8-7~~~0---8-7~~~~0---6---5-0---0-6-8~~~ 
											4x 
----------------------------------------------------------------- 
----------------------------------------------------------------- 
----------------------------------------------------------------- 
----------------------------------------------------------------- 
---7---------7---------7----------7----------7---------5--------- 
-0---8-7~~~0---8---7-0----8-7~~~0---8-7~~~~0---6---5-0---0-6-8-0- 
 
Gtr 3 
------------------------------------------------------------------- 
------------------------------------------------------------------- 
-9-9-9-9---9-9-9---9-9-9---9-9---9-9-9-9----9-9-7---7-7-7---12-12-- 
------------------------------------------------------------------- 
-7-7-7-7---7-7-7---7-7-7---7-7---7-7-7-7----7-7-5---5-5-5---10-10-- 
------------------------------------------------------------------- 
 
----------------------------------------------------------------------------------------- 
----------------------------------------------------------------------------------------- 
-21-21-21-21---21-21-21---21-21-21---21-122---21-21-21-21---21-21-15---14----19---15-17-- 
--------------------------------------------------------------------------14------------- 
-19-19-19-19---19 19-19---19-19-19---19-199---19-19-19-19---19-19-13---12----17---13-15-- 
--------------------------------------------------------------------------12------------- 
 
2nd Chorus 
------------------------------------------------------------------- 
------------------------------------------------------------------- 
-9-9-9-9---9-9-9---9-9-9---9-9---9-9-9-9----9-9-7---7-7-7---12-12-- 
------------------------------------------------------------------- 
-7-7-7-7---7-7-7---7-7-7---7-7---7-7-7-7----7-7-5---5-5-5---10-10-- 
------------------------------------------------------------------- 
 
------------------------------------------------------------------------------- 
------------------------------------------------------------------------------- 
-21-21-21-21---21-21-21---21-21-21---21-122---9-9-9-9---9-9-7---7-7-7---15-15-- 
------------------------------------------------------------------------------- 
-19-19-19-19---19 19-19---19-19-19---19-199---7-7-7-7---7-7-5---5-5-5---13-13-- 
------------------------------------------------------------------------------- 
 
-------------------------------------------------------------------------------------------- 
-------------------------------------------------------------------------------------------- 
-16-16-16-16---16-16-16---16-16-16---16-166---16-16-16-16---16-16/19---19-19-19/24-24-24-24- 
-------------------------------------------------------------------------------------------- 
-14-14-14-14---14-14-14---14-14-14---14-144---14-14-14-14---14-14/17---17-17-17/22-22-22-22- 
-------------------------------------------------------------------------------------------- 
 
----------------------------------------------------------------------------------------- 
----------------------------------------------------------------------------------------- 
-21-21-21-21---21-21-21---21-21-21---21-122---21-21-21-21---21-21-15---14----19---15-17-- 
--------------------------------------------------------------------------14------------- 
-19-19-19-19---19 19-19---19-19-19---19-199---19-19-19-19---19-19-13---12----17---13-15-- 
--------------------------------------------------------------------------12------------- 
 
3rd Chorus 
------------------------------------------------------------------- 
------------------------------------------------------------------- 
-9-9-9-9---9-9-9---9-9-9---9-9---9-9-9-9----9-9-7---7-7-7---12-12-- 
------------------------------------------------------------------- 
-7-7-7-7---7-7-7---7-7-7---7-7---7-7-7-7----7-7-5---5-5-5---10-10-- 
------------------------------------------------------------------- 
 
---------------------------------------------------------------------------------- 
---------------------------------------------------------------------------------- 
-21-21-21-21---21-21-21---21-21-21---21-122---9-9-9-9---9-9-7---7-7-7-12-12-12-12- 
---------------------------------------------------------------------------------- 
-19-19-19-19---19 19-19---19-19-19---19-199---7-7-7-7---7-7-5---5-5-5-10-10-10-10- 
---------------------------------------------------------------------------------- 
(to outro) 
 
 
Interlude (Acoustic Gtr) 
-0------------------------------- 
-0-------0-------0-------3------- 
-0-------0-------0-------2------- 
-2-------2-------2-------4------- 
-2-------3-------4-------5------- 
-0------------------------------- 
 
Gtr 4 
----------------------------------------------3---3-5- 
-------5h6-5h6p5-----6-----4-------4-3------3---3----- 
-5---5-----------5-----5-----5-----------33----------- 
---7---------------7-----7-----3-------5-------------- 
------------------------------------------------------ 
------------------------------------------------------ 
 
-6-------------------------0-------------------------- 
---6---6-----------------6---6-----------55-5/8p5----- 
-----6---6p5---6-------5-------5-------3----------6--- 
-------------8---8---7-----------7---5--------------7- 
-------------------0---------------0------------------ 
------------------------------------------------------ 
 
Gtr 5 
-------------------------------------------------------- 
-1-----1/3-1h3p1---------1------------------------------ 
-----2-----------2-----2-------2/5------------32/3----- 
---2---------------2-1-------------75--------------5--- 
---------------------------3----------------5---------5- 
-------------------------------------------------------- 
 
-------------------------------------------------------- 
-----------------------------------------88-8/11p8------ 
---------6p5---------------------------6-----------9---- 
-------------8-8-------7---7~~~~~~~------------------11- 
-5/8-------------8-87-------------0-7------------------ 
-------6------------------------------------------------ 
 
 
Gtr 1 & 2 
--------------------------------------------------- 
--------------------------------------------------- 
---------------------0-------0----2---------------- 
-----3-------0-----0-------0------2---------------- 
---3-------0-----1-----1-0--------0---0-0--0-0-0-0- 
-1-----1-0-----0---------------3b4----------------- 
pm						  . . . . . . 
 
--------------------------------------- 
--------------------------------------- 
-----------------------------------2--- 
-----------------------------------2--- 
-0-0-0-0-0-0-0-0-0-0-0-0-0-0-0-0-0-0--- 
--------------------------------------- 
pm . . . . . . . . . . . . . . . . . 
 
Solo Rhythm 
----------------------------------------------------------------- 
----------------------------------------------------------------- 
----------------------------------------------------------------- 
----------------------------------------------------------------- 
---7---------7---------7----------7----------7---------5--------- 
-0---8-7~~~0---8---7-0----8-7~~~0---8-7~~~~0---6---5-0---0-6-8~~~ 
											2x 
----------------------------------------------------------------- 
----------------------------------------------------------------- 
----------------------------------------------------------------- 
----------------------------------------------------------------- 
---7---------7---------7----------7----------7---------5--------- 
-0---8-7~~~0---8---7-0----8-7~~~0---8-7~~~~0---6---5-0---0-6-8-0- 
 
Solo Lead 
----------------------------------------------------------------- 
---------------11--b--12~~~~~------------------12--b--15~~~~~~--- 
-9---9~~~~~9--------------------9---9~~~~~~---------------------- 
-------------9---------------/9------------9-9----------------9-- 
----------------------------------------------------------------- 
----------------------------------------------------------------- 
 
-------------------------------------------------------------------------------- 
-------------------16-17--b--20--~~~-17b200b17b20--17b20b17-------------------- 
-9~~~9~~~~~-----16------------------------------------------2b3-2b3-2b3b2b3~~~~~ 
-----------9/17----------------------------------------------------------------- 
-------------------------------------------------------------------------------- 
-------------------------------------------------------------------------------- 
 
--------------15-------18-b-19-18b19~~~18bb19b18p17-15------------------15h19p15--1519 
------17-17~~~---17------------------------------------17~~~17----17b19---------19---- 
--/16---------------16-----------------------------------------16--------------------- 
-------------------------------------------------------------------------------------- 
-------------------------------------------------------------------------------------- 
-------------------------------------------------------------------------------------- 
														 
-19b22~~~~~~~-1922-22b24---22-22b24-22b244-22b24-22b24-22b24-2222b24-22b24-22b24~~~-24-24-24-24------ 
----------------------------------------------------------------------------22b23~~~-23-23-23-23-5/--- 
------------------------------------------------------------------------------------------------------- 
------------------------------------------------------------------------------------------------------- 
------------------------------------------------------------------------------------------------------- 
------------------------------------------------------------------------------------------------------- 
 
-1211-------111211---------1214p12------------1214p12--------15-------------------------------- 
-----12p1112------12--12h15-------1512--122h15-------1512--12--1512--1215p12h15p12--12--------- 
--------------------14----------------14-----------------14--------14-------------14--14p12---- 
-------------------------------------------------------------------------------------------1412 
----------------------------------------------------------------------------------------------- 
----------------------------------------------------------------------------------------------- 
 
Outro Gtr 1 & 2 
----------------------------------------------------------------- 
----------------------------------------------------------------- 
----------------------------------------------------------------- 
----------------------------------------------------------------- 
---7---------7---------7----------7----------7---------5--------- 
-0---8-7~~~0---8---7-0----8-7~~~0---8-7~~~~0---6---5-0---0-6-8~~~ 
											6x  (7th time last 3 bars only) 
 
7th time last two bars Gtr 1 & 2 
---------------------- 
---------------------- 
---------------------- 
------------------2--- 
-------5---8-10--2--- 
-6-5-0---0-6-8---0--- 
 
 
Gtr 3 
------------------------------------------------------------------- 
------------------------------------------------------------------- 
-9-9-9-9---9-9-9---9-9-9---9-9---9-9-9-9----9-9-7---7-7-7---12-12--    
-------------------------------------------------------------------   6x 
-7-7-7-7---7-7-7---7-7-7---7-7---7-7-7-7----7-7-5---5-5-5---10-10--    (7th time last 3 bars only) 
------------------------------------------------------------------- 
 
Lead Guitar 
----------------------------------------------------------------- 
----------------------------------------------------------------- 
----------------------------------------------------------------- 
-----------------------------------------------------11b12------- 
----------------------------------------------------------------- 
----------------------------------------------------------------- 
 
----------------------------------------------------------------------------------------12 
---------------------------------------------------------12h15-----12h15--------------15-- 
-11b12b11---9~~~~~~~~~~~~~~~~~~~~~~~~~~~~~~~~1412---12h14-----12h14-----12h14p12--1214---- 
-------------------------------------------------14-----------------------------14-------- 
------------------------------------------------------------------------------------------ 
------------------------------------------------------------------------------------------ 
 
-----------------------------------------------------------------------------17b19b18--- 
-15b17~~~~~~~121215b17b15p1215-b-17~~~~~155p1215b17b15p1215-b-17~~~~~~~----------------- 
---------------------------------------------------------------------------------------- 
---------------------------------------------------------------------------------------- 
---------------------------------------------------------------------------------------- 
---------------------------------------------------------------------------------------- 
 
-17b19~~~~~~~~~~~17-----------19b22-------b19-15--17--17b18--b17-b18-b17-b18-b17p1517b19~~~b17p15 
-------------------------------------------------------------------------------------------------- 
-------------------------------------------------------------------------------------------------- 
-------------------------------------------------------------------------------------------------- 
-------------------------------------------------------------------------------------------------- 
-------------------------------------------------------------------------------------------------- 
 
-----------------15------------------------17------------------------------------------------ 
-17~~~~~~~17p1517--171517~~~17~~~~~17p15177--17p1517~~~~~~~---------11---~~~~~10---~~~~~--- 
--------------------------------------------------------------/16---13b15-----12b14-------- 
--------------------------------------------------------------------------------------------- 
--------------------------------------------------------------------------------------------- 
--------------------------------------------------------------------------------------------- 
 
--------------------------------------------------------------------------------------------------- 
------------------------12------------------------------------------------------------------------- 
-9h12p9~~~~~----12p9----12p9------9---------------------------------------------------------------- 
------------12p9----12p9----12p912-12p9--------------------------------------------------------2--- 
---------------------------------------12pp10--10----------------------------------------------2--- 
---------------------------------------------12--12---3h5p3h5p3h5p3h55-5-5-----------/8-----0--- 
 
 
 
_______________________________________________________ 
Contribuição: Antonio Carlos de Lorena(lorena@sdnet.com.br) 

  

top cifras megadeth
top cifras thrash metal
ver mais cifras desse artista var letras desse artista
Top cifras » Top artistas »
Anuncie no Cifras Termos de Uso Política de Privacidade Material de DivulgaçãoFale Conosco
Petaxxon Comunicação Online
Cifras.com.br - Melhor e mais completo site de cifras e tablaturas do Brasil
Mais de 1 milhão de cifras cadastradas desde 2003
As informações contidas no Cifras.com.br são colaborações de seus usuários e podem conter erros, sendo assim, não se responsabiliza sobre nenhuma destas.
R7 Música
close
 
redimensionar