» Cifras.com.br » Letras de músicas » Notícias » TV Cifras » Guitar Pro » Gospel

Início » Thrash Metal » Metallica » Ride the Lightning »

Fade To Black

Metallica

Fade To Black

Metallica Escute esta e outras músicas enquanto navega no Cifras

Ano: 1984 - Album: Ride the Lightning

Autor:

Formatação

colunas A+ A- cores

Nível

Expert

Nível: Expert

Transcrição

anônimo


                                                                       
                                                                     
                                                                     
                                             
 





 Introdução 1ª Parte (Violão) - Intr. 1ª P. V.


 e|--------------------------------------------------------------|
 B|--------------------------------------------------------------|
 G|----0---------------0---------------0---------------2---------|
 D|--4---4---4---4---4---4---4---4---4---4---4---4---2---2---2--2|
 A|2-------2---5---0-------0---5---2-------2---5---4-------4---0-|
 E|--------------------------------------------------------------|



 e|--------------------------------------------------------------|
 B|--------------------------------------------------------------|
 G|----0---------------0---------------0---------------2---------|
 D|--4---4---4---4---4---4---4---4---4---4---4---4---2---2---2--2|
 A|2-------2---5---0-------0---5---2-------2---5---4-------4---0-|
 E|--------------------------------------------------------------|




 e|-------------------------------------------------------------|
 B|-------------------------------0--3--------------------------|
 G|-----------------------1-----1-------------------------------|
 D|-----0--------2------2-----2---------------------------------|
 A|---3--------2---2--2-----2-----------------------------------|
 E|-1-----1--4--------------------------------------------------|




 Introdução 2ª Parte (Violão) e Versos - Intr. 2ªP. V. e Ver.



 e|---------0-------------0-------------3-----------------------|
 B|-0h1-----1-----1---1---1-----0---3---3-------------0--1/3----|
 G|-2---2-----0h2---0---0---0h2---0---0---2-0-0-------0--2/4----|
 D|-2-----2---------------------------------------2-------------|
 A|-0---------------3---------------------------2---2-----------|
 E|-------------------------------3-----------------------------|




 e|---------0-------------0-------------3-----------------------|
 B|-0h1-----1-----1---1---1-----0---3---3---------------0--1/3--|
 G|-2---2-----0h2---0---0---0h2---0---0---0h2-0-0-------0--2/4--|
 D|-2-----2-----------------------------------------2-----------|
 A|-0---------------3-----------------------------2---2---------|
 E|-------------------------------3-----------------------------|




 e|---------0-------------0-------------3-----------------------|
 B|-0h1-----1-----1---1---1-----0---3---3-------------0--1/3----|
 G|-2---2-----0h2---0---0---0h2---0---0---2-0-0-------0--2/4----|
 D|-2-----2---------------------------------------2-------------|
 A|-0---------------3---------------------------2---2-----------|
 E|-------------------------------3-----------------------------|




 e|---------0-------------0-------------3-----------------------|
 B|-0h1-----1-----1---1---1-----0---3---3-3-----------0-1/3-0h1-|
 G|-2---2-----0h2---0---0---0h2---0---0-----2-0-------0-2/4-2--2|
 D|-2-----2---------------------------------------2---------2---|
 A|-0---------------3---------------------------2---2-------0---|
 E|-------------------------------3-----------------------------|




 Introdução 1ª Parte (Guitarra 1) - Intr. 1ªP. G1




 e|-------------------------------------------------------------|
 B|-------7---7-8/10--8-10-12-10-8-8h10--12\10--8\7--8p7---7----|
 G|-----7------------------------------------------------9------|
 D|-7/9-----9---------------------------------------------------|
 A|-------------------------------------------------------------|
 E|-------------------------------------------------------------|



 e|-------------------------------------------------------------|
 B|---7h8--7---7-----------------------------8-7---8/10---------|
 G|----------9---9--7-----------7p6----7p6----------------------|
 D|--------------------7-9-9------------------------------------|
 A|-------------------------------------------------------------|
 E|-------------------------------------------------------------|




 e|----14-19p14-------15p14-------------------------------------|
 B|-15----------15----------15----17-15-14----------------------|
 G|----------------16----------16----------16-14b16-14-14h16----|
 D|----------------------------------------------------------14-|
 A|-------------------------------------------------------------|
 E|-------------------------------------------------------------|




 e|--------------------------------------------------19-17-15---|
 B|-------------------14-15-14h15p14--------14-15-14------------|
 G|-----------14-16--------------------16-----------------------|
 D|---14h16-----------------------------------------------------|
 A|-------------------------------------------------------------|
 E|-------------------------------------------------------------|




 e|-15-17-14---------14-15-14---------14-15-14------17--15--14--|
 B|----------15---------------15----------------15--------------|
 G|-------------16---------------14-----------------------------|
 D|-------------------------------------------------------------|
 A|-------------------------------------------------------------|
 E|-------------------------------------------------------------|




 e|--------------------------------------12-13-15-13h15p13----17|
 B|-----------------------------12-13-15-------------------15---|
 G|---------------------12--14----------------------------------|
 D|-----------12-14-15------------------------------------------|
 A|-12-14-15----------------------------------------------------|
 E|-------------------------------------------------------------|



 Verso (Guitarra 1) - Ver. G1



 e|------------------10--0---------------------10--0------------|
 B|-----0h1--------------0--------0h1--------------0------------|
 G|--2------0------------0-----2------0------------0------------|
 D|----------------9-----2-------------------9-----2------------|
 A|------------10--------2---------------10--------2------------|
 E|----------------------0-------------------------0------------|




 Interludio 1 -  1ª Parte  (Guitarra 1) - Inter. 1 P1 G1



 e|-------------------------------------------------------------|
 B|-------------------------------------------------------------|
 G|-------------------------------------------------------------|
 D|------------------2--2-2---------7--5--5-5---------7--2--2-2-|
 A|-2-2-2-2-2-2-2-2--0--0-0-x-x--5--5--3--3-3-x-x--5--5--0--0-0-|
 E|-0-0-0-0-0-0-0-0--------------3-----------------3------------|




 e|-------------------------------------------------------------|
 B|-------------------------------------------------------------|
 G|-------------------------------------------------------------|
 D|-7-9-9-9-----5-4-2--2-2-------7-5--5-5--------7--2-2-2-------|
 A|-5-7-7-7-x-x-3-2-0--0-0-x-x-5-5-3--3-3-x-x--5-5--0-0-0-5-4-2-|
 E|----------------------------3---------------3----------3-2-0-|




 e|-------------------------------------------------------------|
 B|-------------------------------------------------------------|
 G|-------------------------------------------------------------|
 D|-------2--2-2---------7--5--5-5---------7--2--2-2------------|
 A|-------0--0-0-x-x--5--5--3--3-3-x-x--5--5--0--0-0------------|
 E|-------------------3-----------------3-----------------------|



 e|-------------------------------------------------------------|
 B|-------------------------------------------------------------|
 G|-------------------------------------------------------------|
 D|-7-9-9-9-----5-4-2--2-2-------7-5--5-5--------7--2-2-2-------|
 A|-5-7-7-7-x-x-3-2-0--0-0-x-x-5-5-3--3-3-x-x--5-5--0-0-0-5-4-2-|
 E|----------------------------3---------------3----------3-2-0-|





 Interludio 1 - 2ª Parte  (Guitarra 1) - Inter. 1 P2 G1



 e|-------------------------------------------------------------|
 B|-10--10h12/13--13b15r13--12--8--8h10-------------------------|
 G|-------------------------------------9--9/11-11/12--12/14----|
 D|-------------------------------------------------------------|
 A|-------------------------------------------------------------|
 E|-------------------------------------------------------------|



 e|-------------------------------------------------------------|
 B|------12h13--15b17r15--13--15b17--15b17--15b17--15b17r15-----|
 G|--14---------------------------------------------------------|
 D|-------------------------------------------------------------|
 A|-------------------------------------------------------------|
 E|-------------------------------------------------------------|




 Interludio 1 - 2ª Parte - (Guitarra 2) -  Inter. 1 P2 G1  




 e|-------------------------------------------------------------|
 B|-------------------------------------------------------------|
 G|--9--9h11/12--12b14r12--11-7--7h9----------------------------|
 D|------------------------------------9--9/11--11/12--12/14----|
 A|-------------------------------------------------------------|
 E|-------------------------------------------------------------|



 e|-------------------------------------------------------------|
 B|-------------------------------------------------------------|
 G|------11h12--14b16r14--12--14b16--14b16--14b16--14b16r14-----|
 D|--14---------------------------------------------------------|
 A|-------------------------------------------------------------|
 E|-------------------------------------------------------------|




 Interludio 2 - 2ª Parte - (Guitarra 1) - Inter. 2 P2 G1 



 e|-------------------------------------------------------------|
 B|-------------------------------------------------------------|
 G|-----------------------------------------------------------4-|
 D|-7/9--9-9--7/9--9--12--11--7-7--9-9-9--7-7-7--5-5-5--4-4-4---|
 A|-5/7--7-7--5/7--7--10--9---5-5-------------------------------|
 E|-------------------------------------------------------------|



 e|-------------------------------------------------------------|
 B|-------------------------------------------------------------|
 G|-----------------------------------------------------------4-|
 D|-7/9--9-9--7/9--9--12--11--7-7--9-9-9--7-7-7--5-5-5--4-4-4---|
 A|-5/7--7-7--5/7--7--10--9---5-5-------------------------------|
 E|-------------------------------------------------------------|




 Interludio 2 - 3ª Parte - (Guitarra 2) - Inter. 2 P3 G2




 e|-------------------------------------------------------------|
 B|-------------------------------------------------------------|
 G|-----------------------------7-7-7--6-6-6--4-4-4--2-2-2--4---|
 D|-4h5-5-5--4h5--5-9-7--5-5-5----------------------------------|
 A|-------------------------------------------------------------|
 E|-------------------------------------------------------------|



 e|-------------------------------------------------------------|
 B|-------------------------------------------------------------|
 G|-----------------------------7-7-7--6-6-6--4-4-4--2-2-2--4---|
 D|-4h5-5-5--4h5--5-9-7--7-7-7----------------------------------|
 A|-------------------------------------------------------------|
 E|-------------------------------------------------------------|




 Interludio 2 - 3ª Parte - (Guitarra 3) - Inter. 2 P3 G3




 e|----------------------------10-10-10--9-9-9--7-7-7--5-5-5--7-|
 B|-7h8-8-8--7h8--8-12-10--7-7----------------------------------|
 G|-------------------------------------------------------------|
 D|-------------------------------------------------------------|
 A|-------------------------------------------------------------|
 E|-------------------------------------------------------------|




 e|----------------------------10-10-10--9-9-9--7-7-7--5-5-5--7-|
 B|-7h8-8-8--7h8--8-12-10--7-7----------------------------------|
 G|-------------------------------------------------------------|
 D|-------------------------------------------------------------|
 A|-------------------------------------------------------------|
 E|-------------------------------------------------------------|




 Interludio 2 - 4ª Parte - (Guitarra 1) - Inter. 2 P4 G1




 e|-------------------------------------------------------------|
 B|-------------------------------------------------------------|
 G|-----------------------------------------------------------4-|
 D|---------9---------12-11--------7--9-9-9-7-7-7-5-5-5-4-4-4---|
 A|---------7---------10-9---------5----------------------------|
 E|-0-0-0-0---0-0-0-0------0-0-0-0------------------------------|




 e|-------------------------------------------------------------|
 B|-------------------------------------------------------------|
 G|-----------------------------------------------------------4-|
 D|---------9---------12-11--------7--9-9-9-7-7-7-5-5-5-4-4-4---|
 A|---------7---------10-9---------5----------------------------|
 E|-0-0-0-0---0-0-0-0------0-0-0-0------------------------------|





 Interludio 2 - 5ª Parte - (Guitarra 1) - 



 e|-------------------------------------------------------------|
 B|-------------------------------------------------------------|
 G|-------------------------------------------------------------|
 D|--4---2-------2---4---2-------2---4--------------------------|
 A|--2---0---5---0---2---0---5---0---2--------------------------|
 E|----------3---------------3----------------------------------|




 Interludio 2 - 5ª Parte - (Guitarra 2)



 e|-------------------------------------------------------------|
 B|-------------------------------------------------------------|
 G|-------------------------------------------------------------|
 D|---3/4-2-------------3/4-2-------------3/4-2-----------------|
 A|-2-------5-4p2-------------5-4p2-------------5-4p2-----------|
 E|---------------5-2-5-------------5-2-3-------------5-2-5-----|




 e|-------------------------------------------------------------|
 B|-------------------------------------------------------------|
 G|-------------------------------------------------------------|
 D|-3/4-2-------------3/4-2-------------3/4-2-------------------|
 A|-------5-4p2-----2-------5-4p2-------------5-4p2-------------|
 E|-------------5-2---------------5-2-5-------------5-2-3-------|




 e|-------------------------------------------------------------|
 B|-------------------------------------------------------------|
 G|-------------------------------------------------------------|
 D|-3/4-2-------------3/4-2-------------------------------------|
 A|-------5-4p2-------------5-4p2-----2-------------------------|
 E|-------------5-2-5-------------5-2---------------------------|




Interludio 2 - 5ª Parte - (Guitarra 3)



 e|-------------------------------------------------------------|
 B|-------------------------------------------------------------|
 G|-------------------------------------------------------------|
 D|---3/4-5-4--2---------3/4-5-4--2---------3/4-5-4--2----------|
 A|-5------------5-4-2-4------------5-4---2------------5-4-2-4--|
 E|-------------------------------------5-----------------------|




 e|-------------------------------------------------------------|
 B|-------------------------------------------------------------|
 G|-------------------------------------------------------------|
 D|-3/4-5-7--5-4-2-4---3/4-5-4--2---------3/4-5-4--2------------|
 A|------------------5------------5-4-2-4------------5-4---2----|
 E|------------------------------------------------------5------|




 e|-------------------------------------------------------------|
 B|-------------------------------------------------------------|
 G|-------------------------------------------------------------|
 D|-3/4-5-4--2---------3/4-5-4-7--5-4-2-4-----------------------|
 A|------------5-4-2-4--------------------5---------------------|
 E|-------------------------------------------------------------|



 Solo



 e|-------------------------------------------------------------|
 B|---------------------------------------------7-7h8-7---7h8-7-|
 G|---------7--9b11--9b11--9b11--9b11r9p7--9--9---------7-------|
 D|-7/9-9-9-----------------------------------------------------|
 A|-------------------------------------------------------------|
 E|-------------------------------------------------------------|




 e|-------------------------------------------------------------|
 B|---7h8-7---8/10--8-10-12-10-8-10-8-7-8-7---7-----------------|
 G|-7-------7-------------------------------9---9-7-------------|
 D|-------------------------------------------------7--9--9-----|
 A|-------------------------------------------------------------|
 E|-------------------------------------------------------------|




 e|---------------------------7---------7---------7-------------|
 B|-----------------------------10p7------10p7------10p7--------|
 G|-7-9-9b11r9p7-9-7---7-9b11--------9---------9---------9------|
 D|------------------9------------------------------------------|
 A|-------------------------------------------------------------|
 E|-------------------------------------------------------------|





 e|-7---------7---------7---------7---------7-10p7---7-10p7-10p7|
 B|---10p7------10p7------10p7------10p7----------10------------|
 G|--------9---------9---------9---------9----------------------|
 D|-------------------------------------------------------------|
 A|-------------------------------------------------------------|
 E|-------------------------------------------------------------|



 

 e|----7-10p7-10p7-----7-10p7-----7-10p7-10p7----7-10p7-10p7----|
 B|-10-------------10---------10--------------10-------------10-|
 G|-------------------------------------------------------------|
 D|-------------------------------------------------------------|
 A|-------------------------------------------------------------|
 E|-------------------------------------------------------------|





 e|-7--10b12--10b12--10-8-7-8-7----7----------------------------|
 B|-----------------------------10---10-8-10-8-7-8-7---7--------|
 G|--------------------------------------------------9---9-7----|
 D|----------------------------------------------------------7--|
 A|-------------------------------------------------------------|
 E|-------------------------------------------------------------|





 e|------------------7-------------------------------7-8-7--7-8-|
 B|-----8p7---7-8-10---10-8-7-----------8p7---7-8-10------------|
 G|--------9-----------------9-7-----------9--------------------|
 D|-9-9---------------------------7-9-9-------------------------|
 A|-------------------------------------------------------------|
 E|-------------------------------------------------------------|





 e|-10-8-7-8-7----7----------------------------------------------|
 B|------------10---10-8-10-8-7-8-7---7--------------------------|
 G|---------------------------------9---9-7-9-7-6-7-6-------6-7-9|
 D|---------------------------------------------------9-7-9------|
 A|--------------------------------------------------------------|
 E|--------------------------------------------------------------|




 e|--------7---------------------7------------------------------|
 B|-7-8-10---10-8-7-8-7---7-8-10---10-8-7h8p7-------------------|
 G|---------------------9---------------------9-9b11--9b11--9b11|
 D|-------------------------------------------------------------|
 A|-------------------------------------------------------------|
 E|-------------------------------------------------------------|




 e|----------------------------10-10-10---10-10-10---10-10-10---|
 B|----------------------------10-10-10---10-10-10---10-10-10---|
 G|-9b11--9b11(tr)r9p7---7-----7--7--7----7--7--7----7--7--7----|
 D|--------------------9----------------------------------------|
 A|-------------------------------------------------------------|
 E|-------------------------------------------------------------|




 e|-------------------------------------------------------------|
 B|-10b12--10b12--10b12--12r10p7---7-8-7h8p7--------------------|
 G|------------------------------9-----------9-7---7---7-9p7---7|
 D|----------------------------------------------9---9-------9--|
 A|-------------------------------------------------------------|
 E|-------------------------------------------------------------|




 e|--------------------------------15p12----12-15p12-14p12----12|
 B|--------------------------------------12----------------12---|
 G|-------------------------------------------------------------|
 D|-9-7-9-7---7-------------------------------------------------|
 A|---------9---9-7-9-7-5-7p5---5-------------------------------|
 E|---------------------------7---------------------------------|





 e|-15p12-14p12----12--15p12----15p12-14p12----12--15p12-14p12--|
 B|-------------12-----------12-------------12------------------|
 G|-------------------------------------------------------------|
 D|-------------------------------------------------------------|
 A|-------------------------------------------------------------|
 E|-------------------------------------------------------------|





 e|----12--17p14----14--17p14----14--17p14----14--17p14---------|
 B|-12-----------15-----------15-----------15------------15-----|
 G|-------------------------------------------------------------|
 D|-------------------------------------------------------------|
 A|-------------------------------------------------------------|
 E|-------------------------------------------------------------|




 e|-14--17p14----14--17p14----14--17p14-----14--17p14-----------|
 B|-----------15-----------15-----------15------------15--------|
 G|-------------------------------------------------------------|
 D|-------------------------------------------------------------|
 A|-------------------------------------------------------------|
 E|-------------------------------------------------------------|




 e|-19p15----15-19p15-17p15----15--19p15-17p15----15--19p15----15|
 B|-------17----------------17-----------------17-----------17---|
 G|--------------------------------------------------------------|
 D|--------------------------------------------------------------|
 A|--------------------------------------------------------------|
 E|--------------------------------------------------------------|




 e|-19p15-17p15----15--19p15-17p15----15---21p17----17--21p17---|
 B|-------------17-----------------17------------19-----------19|
 G|-------------------------------------------------------------|
 D|-------------------------------------------------------------|
 A|-------------------------------------------------------------|
 E|-------------------------------------------------------------|





 e|-17--21p17----17--21p17----17--21p17----17--21p17----17--21p17|
 B|-----------19-----------19-----------19-----------19----------|
 G|--------------------------------------------------------------|
 D|--------------------------------------------------------------|
 A|--------------------------------------------------------------|
 E|--------------------------------------------------------------|






 e|----17--21p17----17---22b24-----22b24-----22b24-----22b24----|
 B|-19-----------19---------------------------------------------|
 G|-------------------------------------------------------------|
 D|-------------------------------------------------------------|
 A|-------------------------------------------------------------|
 E|-------------------------------------------------------------|




 e|-22b24--22b24--22b24-22b24--22--17---22-20-19-20-19-17-19-17-|
 B|-------------------------------------------------------------|
 G|-------------------------------------------------------------|
 D|-------------------------------------------------------------|
 A|-------------------------------------------------------------|
 E|-------------------------------------------------------------|




 e|-15-17-15-14-15-14-12-14-12-10-12-10-9-10-9-7-9-7----7-------|
 B|--------------------------------------------------10---10-8--|
 G|-------------------------------------------------------------|
 D|-------------------------------------------------------------|
 A|-------------------------------------------------------------|
 E|-------------------------------------------------------------|




 e|-------------------------------------------------------------|
 B|-10-8-7-8-7---7-----------------------------------------10b12|
 G|------------9---9-7-9-7---7---7--9b11-9b11-9b11(tr)r9p7------|
 D|------------------------9---9--------------------------------|
 A|-------------------------------------------------------------|
 E|-------------------------------------------------------------|


  

top cifras metallica
top cifras thrash metal
ver mais cifras desse artista var letras desse artista
Top cifras » Top artistas »
Anuncie no Cifras Termos de Uso Política de Privacidade Material de DivulgaçãoFale Conosco
Petaxxon Comunicação Online
Cifras.com.br - Melhor e mais completo site de cifras e tablaturas do Brasil
Mais de 1 milhão de cifras cadastradas desde 2003
As informações contidas no Cifras.com.br são colaborações de seus usuários e podem conter erros, sendo assim, não se responsabiliza sobre nenhuma destas.
R7 Música
close
 
redimensionar