» Cifras.com.br » Letras de músicas » Notícias » TV Cifras » Guitar Pro » Gospel
Logo Cifras.com.br

Início » Thrash Metal » Metallica » The Metallic-Era, Vol. 2 »

Master Of Puppets

Metallica

Master Of Puppets

Metallica Escute esta e outras músicas enquanto navega no Cifras

Ano: 1986 - Album: The Metallic-Era, Vol. 2

Autor:

Formatação

colunas A+ A- cores

Nível

Expert

Nível: Expert

Transcrição

enviada por NHRA


  

 01 - Intro 



 e|----------------------------------------------------------| 
 B|----------------------------------------------------------| 
 G|----------------------------------------------------------| 
 D|------7--6--5---------------------------7--6--5-----------| 
 A|--2---5--4--3---------7--------6--------5--4--3-----------| 
 E|--0-------------0--0-----0--0-----0--0--------------------| 



 e|----------------------------------------------------------| 
 B|----------------------------------------------------------| 
 G|----------------------------------------------------------| 
 D|----------------------------------------------------------| 
 A|----------------------------------------------------------| 
 E|---0--0--7--0--0--6--0--0--5--0--4--0--3--0--2--0---------| 



 e|----------------------------------------------------------| 
 B|----------------------------------------------------------| 
 G|----------------------------------------------------------| 
 D|-----------------7-6-5------------------------------------| 
 A|-----7-----6-----5-4-3------------------------------------| 
 E|-0-0---0-0---0-0-------0-0-7-0-0-6-0-0-5-0-4-0-3-0-2-0----| (3x) 



 e|----------------------------------------------------------| 
 B|----------------------------------------------------------| 
 G|----------------------------------------------------------| 
 D|----------------------------------------------------------| 
 A|-------2-----3-----4-----3-----2-2-----2-----3------------| 
 E|---0-1---0-1---0-1---0-1---0-1-----0-1---0-1---0-1--------| 



 e|----------------------------------------------------------| 
 B|----------------------------------------------------------| 
 G|----------------------------------------------------------| 
 D|----------------------------------------------------------| 
 A|---5\4------5\4-------5\4---------------------------------| 
 E|---3\2p0----3\2p0-----3\2p0-------------------------------|(2x) 



 e|----------------------------------------------------------| 
 B|----------------------------------------------------------| 
 G|----------------------------------------------------------| 
 D|----------------------------------------------------------| 
 A|-------2-----3-----4-----3-----2-2-----2----3-----4-----3-| 
 E|---0-1---0-1---0-1---0-1---0-1-----0-1---01---0-1---0-1---| 



 e|----------------------------------------------------------| 
 B|----------------------------------------------------------| 
 G|----------------------------------------------------------| 
 D|-----4----------------------------------------------------| 
 A|-----2-----2-----3-----4-----3-----2-2-----2-----3--------| 
 E|-0-1---0-1---0-1---0-1---0-1---0-1-----0-1---0-1---0-1----| 



 e|----------------------------------------------------------| 
 B|----------------------------------------------------------| 
 G|----------------------------------------------------------| 
 D|----------------------------------------------------------| 
 A|---5\4------5\4------5\4----------------------------------| 
 E|---3\2p0----3\2p0----3\2p0--------------------------------| (2x) 



 e|----------------------------------------------------------| 
 B|----------------------------------------------------------| 
 G|----------------------------------------------------------| 
 D|-----------------------------8-----8-----8-----8-----8----| 
 A|-5\4-----5\4-----5\4-------7-----7-----7-----7-----7------| 
 E|-3\2p0---3\2p0---3\2p0---0-----0-----0-----0-----0--------| 




 Verse 1 


 e|----------------------------------------------------------| 
 B|----------------------------------------------------------| 
 G|----------------------------------------------------------| 
 D|----------------------------------------------------------| 
 A|----------------------------5\7---8/7---5\7---------------| 
 E|-0--0--0--0--0--0--0--0--0--3\5---6/5---3\5---------------| 



 e|----------------------------------------------------------| 
 B|----------------------------------------------------------| 
 G|----------------------------------------------------------| 
 D|----------------------------------------------------------| 
 A|------------------------------5\7----5\7------------------| 
 E|-0--0--0--0--0--0--0--0--0----3\5----3\5------------------| (6x) 



 Pré-Chorus 



 e|----------------------------------------------------------| 
 B|----------------------------------------------------------| 
 G|----------------------------------------------------------| 
 D|-------------------0h4-5\4-0h4-------------------0h4-0h4--| 
 A|-------------------0h2-3\2-0h2-------------------0h2-0h2--| 
 E|-2-2-2-2-2-2-2-2-2-------------2-2-2-2-2-2-2-2-2----------| (2x) 



 e|----------------------------------------------------------| 
 B|----------------------------------------------------------| 
 G|----------------------------------------------------------| 
 D|----------------------------------------------------------| 
 A|--2--2--2--2--2--2--2--2----------------------------------| 
 E|----------------------------------------------------------| 



  Chorus 



 e|----------------------------------------------------------| 
 B|----------------------------------------------------------| 
 G|----------------------------------------------------------| 
 D|-9-----7--9-----9---------------------------------8-------| 
 A|-7-----5--7-7-7---7-9h10-----------10-9-----------6-9-----| 
 E|---0-0---------------------8-8-8-8-8--7---8-8-8-8---7-----| 



 e|----------------------------------------------------------| 
 B|----------------------------------------------------------| 
 G|----------------------------------------------------------| 
 D|---------7-9------9-------------------------------8-------| 
 A|---------5-7--7-7---7-9h10----------10-9----------6-9-----| 
 E|-0-0-0-0--------------------8-8-8-8-8--7--8-8-8-8---7-----| 



 e|----------------------------------------------------------| 
 B|----------------------------------------------------------| 
 G|----------------------------------------------------------| 
 D|--------7-9-----9---------------------7-5-4--4------------| 
 A|--------5-7-7-7---7-9h10---------10-9-9-7-6--6-7-6-2-2-3-3| 
 E|0-0-0-0------------------8-8-8-8-8--7----------8-7-0-0-1-1| 




  Verso 2 



 e|----------------------------------------------------------| 
 B|----------------------------------------------------------| 
 G|----------------------------------------------------------| 
 D|----------------5-----4-----2--7-----5-----4--9-----7-----| 
 A|-2-----4-----5--3-0-0-2-0-0-0--5-----3-----2--7-----5-----| 
 E|-0-0-0-2-0-0-3-------------------3-3---3-3------0-0---0-0-| 




 e|----------------------------------------------------------| 
 B|----------------------------------------------------------| 
 G|----------------------------------------------------------| 
 D|-5-----------------------5--------------------------------| 
 A|-3-2-2--3-3--2-----5-----3--2-2--3-3----------------------| 
 E|---0-0--1-1--0-0-0-3-0-0----0-0--1-1----------------------| 



Interlude 1 



 e|----------------------------------------------------------| 
 B|----------------------------------------------------------| 
 G|----------------------------------------------------------| 
 D|----------------------------------------------------------| 
 A|-------2-----3-----4-----3-----2-2-----2-----3-----4-----3| 
 E|---0-1---0-1---0-1---0-1---0-1-----0-1---0-1---0-1---0-1--| 



 e|----------------------------------------------------------| 
 B|----------------------------------------------------------| 
 G|----------------------------------------------------------| 
 D|-----4----------------------------------------------------| 
 A|-----2-----2-----3-----4-----3-----2-2-----2-----3--------| 
 E|-0-1---0-1---0-1---0-1---0-1---0-1-----0-1---0-1---0-1----| 




 e|----------------------------------------------------------| 
 B|----------------------------------------------------------| 
 G|----------------------------------------------------------| 
 D|----------------------------------------------------------| 
 A|--5\4----5\4----5\4----5\4----5\4----5\4------------------| 
 E|--3\2p0--3\2p0--3\2p0--3\2p0--3\2p0--3\2p0----------------| 




Interlude 2 - 1ª Parte - Guit. 1 



 e|-----------------0h2p0-----3------------------------------| 
 B|-------------3---------3---------3---3-----0-----0-------0| 
 G|-------0---2---2---------2-----0---0---0-------2-------2--| 
 D|-----2---0-------------------------------2----------------| 
 A|---2-------------------------3---------------0-----0-2----| 
 E|-0--------------------------------------------------------| 




 e|----------------------------------------------------------| 
 B|--------0-------------------------------------------------| 
 G|------2---------------------------------------------------| 
 D|----1-----------------------------------------------------| 
 A|--2-------------------------------------------------------| 
 E|----------3-----------------------------------------------| repeat 


Interlude 2 - 1ª Part - Guit. 2 



 e|----------------------------------------------------------| 
 B|----------------------------------------------------------| 
 G|--------------4--8----------------------------------------| 
 D|--2--4--5--7----------------------------------------------| 
 A|----------------------------------------------------------| 
 E|----------------------------------------------------------| 




Interlude 2 - 2ª Part - Guit. 1 



 e|----22----------------------------------------------------| 
 B|-17----20----22-19--------------22-19----20-17------------| 
 G|----------21-------19--19-19-19-------19-------17-17-17-17| 
 D|----------------------------------------------------------| 
 A|----------------------------------------------------------| 
 E|----------------------------------------------------------| 



 e|----------------------------------------------------------| 
 B|-20-17----19-17h19p17-16----------------16-17-19/20-------| 
 G|-------17----------------17-16-17-19-17-------------------| 
 D|----------------------------------------------------------| 
 A|----------------------------------------------------------| 
 E|----------------------------------------------------------| 



 e|----22----------------------------------------------------| 
 B|-17----20----22-19--------------22-19----20-17------------| 
 G|----------21-------19--19-19-19-------19-------17-17-17-17| 
 D|----------------------------------------------------------| 
 A|----------------------------------------------------------| 
 E|----------------------------------------------------------| 



 e|----------------------------------------------------------| 
 B|-20-17----19-17h19p17-16----------------16-17-19/20-------| 
 G|-------17----------------17-16-17-19-17-------------17----| 
 D|----------------------------------------------------------| 
 A|----------------------------------------------------------| 
 E|----------------------------------------------------------| 



Interlude 2 - 2ª Part - Guit. 2 



 e|----19-19----20-17--------------20-17----19-15------------| 
 B|-20-------20-------19--19-19-19-------19-------17-17-17-17| 
 G|----------------------------------------------------------| 
 D|----------------------------------------------------------| 
 A|----------------------------------------------------------| 
 E|----------------------------------------------------------| 




 e|-19-15----17-15h17p15-14----------14----14-15-17/19-------| 
 B|-------17----------------17-16-17----17-------------------| 
 G|----------------------------------------------------------| 
 D|----------------------------------------------------------| 
 A|----------------------------------------------------------| 
 E|----------------------------------------------------------| 



 e|----19-19----20-17--------------20-17----19-15------------| 
 B|-20-------20-------19--19-19-19-------19-------17-17-17-17| 
 G|----------------------------------------------------------| 
 D|----------------------------------------------------------| 
 A|----------------------------------------------------------| 
 E|----------------------------------------------------------| 




 e|-19-15----17-15h17p15-14----------14----14-15-17/19-------| 
 B|-------17----------------17-16-17----17-------------20----| 
 G|----------------------------------------------------------| 
 D|----------------------------------------------------------| 
 A|----------------------------------------------------------| 
 E|----------------------------------------------------------| 



 Solo 1 



 e|---------------------17-------------19--------------------| 
 B|-17--17-19-20--19-20----20-19h20p19----20-17h20p17--------| 
 G|---------------------------------------------------17-----| 
 D|----------------------------------------------------------| 
 A|----------------------------------------------------------| 
 E|----------------------------------------------------------| 



 e|----------------------------------------------------------| 
 B|-------------20-19----20-19-----------------15------------| 
 G|-19b21-19b21-------16-------16h19-16--12h14-14b16---------| 
 D|----------------------------------------------------------| 
 A|----------------------------------------------------------| 
 E|----------------------------------------------------------| 



 e|----------------------------------------------------------| 
 B|----------------------------------------------------------| 
 G|16r14p12-------12-----12-14p12-11---14-12-11h12p11--------| 
 D|---------14-12---14-12-----------12---------------10--9h10| 
 A|----------------------------------------------------12----| 
 E|----------------------------------------------------------| 



 e|-------------------------------15-14-11h12p11-------/19---| 
 B|-------------------------12-------------------12-10-----17| 
 G|----------------9--12-14----12----------------------------| 
 D|-9-10-12--10-12-------------------------------------------| 
 A|----------------------------------------------------------| 
 E|----------------------------------------------------------| 



Interlude 2 - 3ª Part - Guit. 1 


 e|-----------------0h2p0-----3------------------------------| 
 B|-------------3---------3---------3---3-----0-----0-------0| 
 G|-------0---2---2---------2-----0---0---0-------2-------2--| 
 D|-----2---0-------------------------------2----------------| 
 A|---2-------------------------3---------------0-----0-2----| 
 E|-0--------------------------------------------------------| 



 e|----------------------------------------------------------| 
 B|--------0-------------------------------------------------| 
 G|------2---------------------------------------------------| 
 D|----1-----------------------------------------------------| 
 A|--2-------------------------------------------------------| 
 E|----------3-----------------------------------------------|  




 e|-----------------0h2p0-----3------------------------------| 
 B|-------------3---------3---------3---3-----0-----0-------0| 
 G|-------0---2---2---------2-----0---0---0-------2-------2--| 
 D|-----2---0-------------------------------2----------------| 
 A|---2-------------------------3---------------0-----0-2----| 
 E|-0--------------------------------------------------------| 



 e|----------------------------------------------------------| 
 B|--------0-------------------------------------------------| 
 G|------2---------------------------------------------------| 
 D|----1-----------------------------------------------------| 
 A|--2-------------------------------------------------------| 
 E|----------3--0--------------------------------------------| 




Interlude 2 - 3ª Part - Guit. 2 



 e|----------------------------------------------------------| 
 B|-----3-----------------3----------------------------------| 
 G|-----2-----------------2----------------------------------| 
 D|-----0--5--2--4--8-----0--5--2--4--8----------------------| 
 A|--2-----3--0--2--6--2-----3--0--2--6----------------------| 
 E|--0-----------------0-------------------------------------| 




Interlude 2 - 4ª Parte  



 e|----------------------------------------------------------| 
 B|----------------------------------------------------------| 
 G|----------------------------------------------------------| 
 D|----------------------------------------------------------| 
 A|-2--2--2--2--2--2--2--2--2--2--2--2--2--2--2--2-----------| 
 E|-0--0--0--0--0--0--0--0--0--0--0--0--0--0--0--0-----------| 



 e|----------------------------------------------------------| 
 B|----------------------------------------------------------| 
 G|----------------------------------------------------------| 
 D|------------------------------------------------6---------| 
 A|-4--4--5--4--4--4--5--4-4--4--4--5--4--4--4--5--4---------| 
 E|-2--2--3--2--2--2--3-------2--2--3--2--2--2--3------------| (6x) 




 e|----------------------------------------------------------| 
 B|----------------------------------------------------------| 
 G|----------------------------------------------------------| 
 D|----------------------------------------------------------| 
 A|--5---4---2-----------------------------------------------| 
 E|--3---2---0---2/\-----------------------------------------| 



Solo 2 





 e|-17p12----------12-17p12----------12-17p12----------12----| 
 B|-------13-12-13----------13-12-13----------13-12-13-------| 
 G|----------------------------------------------------------| 
 D|----------------------------------------------------------| 
 A|----------------------------------------------------------| 
 E|----------------------------------------------------------| 



 e|-15p12----------12-17p12----------12-17p12----------12----| 
 B|-------13-12-13----------13-12-13----------13-12-13-------| 
 G|----------------------------------------------------------| 
 D|----------------------------------------------------------| 
 A|----------------------------------------------------------| 
 E|----------------------------------------------------------| 



 e|-17p12----------12-15p12----19-19-19-17-17-17-15-15-15----| 
 B|-------13-12-13----------13-------------------------------| 
 G|----------------------------------------------------------| 
 D|----------------------------------------------------------| 
 A|----------------------------------------------------------| 
 E|----------------------------------------------------------| 



 e|-14-14-14-17-17-17-15-15-15-14-14-14----------------------| 
 B|-------------------------------------15-15-15-17b19-17b19-| 
 G|----------------------------------------------------------| 
 D|----------------------------------------------------------| 
 A|----------------------------------------------------------| 
 E|----------------------------------------------------------| 


                                       
 e|----------------19\---------------------------------------| 
 B|-17b19r17b19-15-----17p15------------(HAR)----------------| 
 G|--------------------------17-16p14\--2b5-2b5r2b5r2b5r2----| 
 D|----------------------------------------------------------| 
 A|----------------------------------------------------------| 
 E|----------------------------------------------------------| 


  
 e|----------------------------------------------------------| 
 B|-(HAR)----------------------------------------------------| 
 G|-2b5-2b5r2b5r2b5r2--2--4--4b6--4p2-----2------------------| 
 D|------------------------------------4-----4---2---2---4---| 
 A|----------------------------------------------------------| 
 E|----------------------------------------------------------| 



 e|--10---8---7-------8p7-------------------------7----------| 
 B|--------------10---------10---8---7---8---10--------------| 
 G|----------------------------------------------------------| 
 D|----------------------------------------------------------| 
 A|----------------------------------------------------------| 
 E|----------------------------------------------------------| 



 e|--10-8-7-7-10-8-7-7-12-10-8-8-12-10-8-8-14-12-10-10-------| 
 B|----------------------------------------------------------| 
 G|----------------------------------------------------------| 
 D|----------------------------------------------------------| 
 A|----------------------------------------------------------| 
 E|----------------------------------------------------------| 



 e|--14-12-10-10-16-14-12-12-17-16p14-14-19-17p14-14---------| 
 B|----------------------------------------------------------| 
 G|----------------------------------------------------------| 
 D|----------------------------------------------------------| 
 A|----------------------------------------------------------| 
 E|----------------------------------------------------------| 



 e|-17-16p14-14-19-17p14-14-17-16p14-14-19-17p14-14----------| 
 B|----------------------------------------------------------| 
 G|----------------------------------------------------------| 
 D|----------------------------------------------------------| 
 A|----------------------------------------------------------| 
 E|----------------------------------------------------------| 




 e|-17-16p14-14-19-17p14-14-17-16p14-14-19-17p14-14-------14-| 
 B|-------------------------------------------------17b19----| 
 G|----------------------------------------------------------| 
 D|----------------------------------------------------------| 
 A|----------------------------------------------------------| 
 E|----------------------------------------------------------| 



 e|-------14-------14-------14--19p14----19p14----14-------14| 
 B|-17b19----17b19----17b19-----------17-------17----17b19---| 
 G|----------------------------------------------------------| 
 D|----------------------------------------------------------| 
 A|----------------------------------------------------------| 
 E|----------------------------------------------------------| 



 e|-------14-------15-------15-------17-------17-------18----| 
 B|-17b19----18b20----18b20----20b22----20b22----21b23-------| 
 G|----------------------------------------------------------| 
 D|----------------------------------------------------------| 
 A|----------------------------------------------------------| 
 E|----------------------------------------------------------| 



 e|-------18-------19-------19--22b24------------------------| 
 B|-21b23----22b24----22b24----------------------------------| 
 G|----------------------------------------------------------| 
 D|----------------------------------------------------------| 
 A|----------------------------------------------------------| 
 E|----------------------------------------------------------| 




Interlude 2 - 5ª Part - Guit. 1 



 e|----------------------------------------------------------| 
 B|----------------------------------------------------------| 
 G|----------------------------------------------------------| 
 D|----------------------------------------------------------| 
 A|--------3--------3--------3--------3--------2--2----------| 
 E|--0--0--1--0--0--1--0--0--1--0--0--1--0--0----------------| 




 e|----------------------------------------------------------| 
 B|----------------------------------------------------------| 
 G|----------------------------------------------------------| 
 D|--------------------------------------------4-------------| 
 A|--------3--------3--------3--------3--------2-------------| 
 E|--0--0--1--0--0--1--0--0--1--0--0--1--0--0----------------| (2x) 



 e|----------------------------------------------------------| 
 B|----------------------------------------------------------| 
 G|----------------------------------------------------------| 
 D|-------------------------------2-4-5----------------------| 
 A|-------------------------2-3-5-------3-3-3-3-2-3-5-3-2----| 
 E|-0-0-0-0-0-0-0-0-0-2-3-5-------------------------------3-2| 



 e|-----------------------------------------------------------| 
 B|-----------------------------------------------------------| 
 G|-----------------------------------------------------------| 
 D|--------------------------------2-4-5----------------------| 
 A|--------------------------2-3-5-------3-3-3-3-2-3-5-3-2----| 
 E|0-0-0-0-0-0-0-0-0-0-2-3-4-------------------------------3-2| (2x) 



 e|-------------------------------------------------------------| 
 B|-------------------------------------------------------------| 
 G|-------------------------------------------------------------| 
 D|--------------------------------2-4-5-5----------------------| 
 A|--------------------------2-3-5-------3-3-3-3-2-3-5-3-2-----2| 
 E|0-0-0-0-0-0-0-0-0-0-2-3-5-------------------------------3-2-0| 




 e|----------------------------------------------------------| 
 B|----------------------------------------------------------| 
 G|----------------------------------------------------------| 
 D|----------------------------------------------------------| 
 A|-3-3-3-2-3-5-3-2---------2-----3-----4-----3-----2-2------| 
 E|-----------------3-2-0-1---0-1---0-1---0-1---0-1----------| 




 e|----------------------------------------------------------| 
 B|----------------------------------------------------------| 
 G|----------------------------------------------------------| 
 D|----------------------------------------------------------| 
 A|-----2-----3-----5\4----5\4----5\4------------------------| 
 E|-0-1---0-1---0-1-3\2p0--3\2p0--3\2p0----------------------| 




 e|----------------------------------------------------------| 
 B|----------------------------------------------------------| 
 G|----------------------------------------------------------| 
 D|----------------------------------------------------------| 
 A|-----2-----3-----4-----3-----2-2-----2-----3--------------| 
 E|-0-1---0-1---0-1---0-1---0-1-----0-1---0-1---0-1----------| 




 e|----------------------------------------------------------| 
 B|----------------------------------------------------------| 
 G|----------------------------------------------------------| 
 D|----------------------------------------------------------| 
 A|-5\4----5\4----5\4----5\4----5\4----5\4-------------------| 
 E|-3\2p0--3\2p0--3\2p0--3\2p0--3\2p0--3\2p0-----------------| 



Interlude 2 - 5ª Part - Guit. 2 



 e|----------------------------------------------------------| 
 B|----------------------------------------------------------| 
 G|-----------------------------------2h4--------------------| 
 D|-------------------------------4-5-----2--2-2-2-0-2-4-2-0-| 
 A|---------------------------2-3----------------------------| 
 E|-0-0-0-0-0-0-0-0-0-0-2-3-5--------------------------------| 




 e|----------------------------------------------------------| 
 B|----------------------------------------------------------| 
 G|---------------------------------------2h4----------------| 
 D|-----------------------------------4-5-----2--2-2-2-0-2-4-| 
 A|-3-2---------------------------2-3------------------------| 
 E|-----0-0-0-0-0-0-0-0-0-0-2-3-5----------------------------| 



 e|----------------------------------------------------------| 
 B|----------------------------------------------------------| 
 G|-----------------------2----------------------------------| 
 D|--2-0--------5-5-5-4-5---5-4-2-4--------------------------| 
 A|------3-2-2-----------------------------------------------| 
 E|----------0-----------------------------------------------| 



End  


  

 e|----------------------------------------------------------| 
 B|----------------------------------------------------------| 
 G|----------------------------------------------------------| 
 D|----------------------------------------------------------| 
 A|----------------------------5\7---8/7---5\7---------------| 
 E|-0--0--0--0--0--0--0--0--0--3\5---6/5---3\5---------------| 



 e|----------------------------------------------------------| 
 B|----------------------------------------------------------| 
 G|----------------------------------------------------------| 
 D|------------------------------5\7----5\7------------------| 
 A|-0--0--0--0--0--0--0--0--0----3\5----3\5------------------|  
 E|----------------------------------------------------------| (4x) 




 e|----------------------------------------------------------| 
 B|----------------------------------------------------------| 
 G|----------------------------------------------------------| 
 D|----------------------------------------------------------| 
 A|-5\4----5\4----5\4----2-----------------------------------| 
 E|-3\2p0--3\2p0--3\2p0--0-----------------------------------| 
  

top cifras metallica
top cifras thrash metal
ver mais cifras desse artista var letras desse artista
Top cifras » Top artistas »
Anuncie no Cifras Termos de Uso Política de Privacidade Material de DivulgaçãoFale Conosco
Petaxxon Comunicação Online
Cifras.com.br - Melhor e mais completo site de cifras e tablaturas do Brasil
Mais de 1 milhão de cifras cadastradas desde 2003
As informações contidas no Cifras.com.br são colaborações de seus usuários e podem conter erros, sendo assim, não se responsabiliza sobre nenhuma destas.
R7 Música
close
 
redimensionar