» Cifras.com.br » Letras de músicas » Notícias » TV Cifras » Guitar Pro » Gospel

Início » Thrash Metal » Metallica » Metallica »

Nothing Else Matters

Metallica

Nothing Else Matters

Metallica Escute esta e outras músicas enquanto navega no Cifras

Ano: 1991 - Album: Metallica

Autor:

Formatação

colunas A+ A- cores

Nível

Expert

Nível: Expert

Transcrição

enviada por Gui_Villela


  Introdução 
    Em 
 
  E|-------0-----|-------0-----|-------0-----|-------0---7-| 
  B|-----0---0---|-----0---0---|-----0---0---|-----0---0---| 
6 G|---0-------0-|---0-------0-|---0-------0-|---0---------| 
8 D|-------------|-------------|-------------|-------------| 
  A|-------------|-------------|-------------|-------------| 
  E|-0-----------|-0-----------|-0-----------|-0-----------| 
 
  
               P                                 H S       P S 
E|-7-----------7^0---------|   E|---------7---8---7^8\5---7-5^3\2---| 
B|-----0-----------0-------|   B|---------0---0-----------0-------5-| 
G|---------0-----------0---| 9 G|-----0-----------------------------| 
D|-------------------------| 8 D|-----------------------------------| 
A|-------------------------|   A|-----------------------------------| 
E|-0-----------------------|   E|-0---------------------------------| 
 
    Am 
                 P 
  E|-------------2^0---------|-------------0---0---0---| 
  B|-5-------5-------5-------|---------5-------5---5---| 
6 G|-----5---------------5---|-----5-----------5---5---| 
8 D|-------------------------|-------------------------| 
  A|-0-----------------------|-0---------------0---2---| 
  E|-------------------------|-------------------------| 
 
  C                         D 
               P                         H P   P   H 
E|-0-----------3^0-----0---|-0-----------0^5^0---------| 
B|-5-------5-------5---5---|-7-------7---------7^0-0^5-| 
G|-5-----5---5-------5-5---|-7-----7---7---------------| 
D|-------------------------|---------------------------| 
A|-3---3---------------3---|-5---5---------------------| 
E|-------------------------|---------------------------| 
 
                Em 
    «Har.» 
E|-------12----|-------0-----|-------0-----|-------0-----| 
B|-----12--0---|-----0---0---|---------0---|---------0---| 
G|---12------0-|---0-------0-|---0-------0-|---0-------0-| 
D|-------------|-------------|-------------|-------------| 
A|-------------|-------------|-------------|-------------| 
E|-0-----------|-0-----------|-0-----------|-0-----------| 
 
  Em                        D     C       Em 
                           
E|-------------7-----------|-------------|-------------7-----------| 
B|-------------8-----------|-----7-----5-|-------------8-----------| 
G|-----------9-------------|-----7-----5-|-----------9-------------| 
D|---------9---------------|---7-----5---|---------9---------------| 
A|-------7-----------------|-5-----3-----|-------7-----------------| 
E|-0-----------------------|-------------|-0-----------------------| 
 
  D     C       Em                        D           C 
 
E|-------------|-------------7-----------|-----5-----------3-------| 
B|-----7-----5-|-------------8-----------|-------7-----------5-----| 
G|-----7-----5-|---------9---------------|---------7-----------5---| 
D|---7-----5---|-----------9-------------|-----7-----------5-------| 
A|-5-----3-----|-------7-----------------|-5-----------3-----------| 
E|-------------|-0-----------------------|-------------------------| 
 
  G           B7            Em 
                                                        Fim da introdução 
E|-----3-----------2-------|-------0-----|-------0-----|| 
B|-------3-----------4-----|-----0---0---|-----0---0---|| 
G|---------4-----------2---|-4-0-------0-|---0-------0-|| 
D|-----5-----------4-------|-------------|-------------|| 
A|-------------2-----------|-------------|-------------|| 
E|-3-----------------------|-0-----------|-0-----------|| 
 
 
Parte da guitarra principal 
  Em                        D           C 
   
E|-------------3-----0-----|-2-----3-----0-----------| 
B|---------0-----------0---|---------3-------3-------| 
G|-----0-----------0-----0-|-----------0-------0-----| 
D|-------------------------|-0-----------------------| 
A|-------------------------|-------------3-----------| 
E|-0-----------------------|---------------------3-2-| 
 
  Em                        D           C 
                                     P 
E|-------------3-----0-----|-2-----------------------| 
B|---------0-----------0---|-------3-----3-----------| 
G|-----0-----------0-----0-|---------2^0-----0-------| 
D|-------------------------|-0--0--------------------| 
A|-------------------------|-------------3-----------| 
E|-0-----------------------|---------------------3-2-| 
 
  Em                        D           C 
 
E|-------------3-----0-----|-2-----3-----3-----------| 
B|---------0-----------0---|---------3-------3-------| 
G|-----0-----------0-----0-|-----------0---------0---| 
D|-------------------------|-0--0--------------------| 
A|-------------------------|-------------3-----------| 
E|-0-----------------------|-------------------------| 
 
  G           B7            Em 
                                                                    
E|---------3---2-------2---|-0-----0-----|-------------0-----------| 
B|---------3---0---------0-|-----0---0---|---------0-------0-------| 
G|-----0-------2-----------|---0-------0-|-----0-------------------| 
D|-------------------------|-------------|-------------------------| 
A|-------------2-----2-----|-------------|-------------------------| 
E|-3-----------------------|-0-----------|-0-------------------3-2-| 
 
 
Parte dos acordes de guitarra: 
Refrão 
  C     A       D      D  D  D  D4   D   D9  D      
 
E|-------------|-2------2--2--2--3----2---0---2-| 
B|-1-----2-----|-3------3--3--3--3----3---3---3-| 
G|-0-----2-----|-2------2--2--2--2----2---2---2-| 
D|-2-----2-----|-0------0--0--0--0----0---0---0-| 
A|-3-----0-----|--------------------------------| 
E|-------------|--------------------------------| 
 
  C     A       D      D  D  D  D4   D   D9  D      
 
E|-------------|-2------2--2--2--3----2---0---2-| 
B|-1-----2-----|-3------3--3--3--3----3---3---3-| 
G|-0-----2-----|-2------2--2--2--2----2---2---2-| 
D|-2-----2-----|-0------0--0--0--0----0---0---0-| 
A|-3-----0-----|--------------------------------| 
E|-------------|--------------------------------| 
 
  C     A       D      D  D  D  Em    
 
E|-------------|-2------2--2--2--0--------------| 
B|-1-----2-----|-3------3--3--3--0--------------| 
G|-0-----2-----|-2------2--2--2--0--------------| 
D|-2-----2-----|-0------0--0--0--2--------------| 
A|-3-----0-----|-----------------2--------------| 
E|-------------|-----------------0--------------| 
 
 
Segundo Refrão 
  C     A       D      D  D  D  D4   D   D9  D      
 
E|-------------|-2------2--2--2--3----2---0---2-| 
B|-1-----2-----|-3------3--3--3--3----3---3---3-| 
G|-0-----2-----|-2------2--2--2--2----2---2---2-| 
D|-2-----2-----|-0------0--0--0--0----0---0---0-| 
A|-3-----0-----|--------------------------------| 
E|-------------|--------------------------------| 
 
  C     A       D      D  D  D  D4   D   D9  D      
 
E|-------------|-2------2--2--2--3----2---0---2-| 
B|-1-----2-----|-3------3--3--3--3----3---3---3-| 
G|-0-----2-----|-2------2--2--2--2----2---2---2-| 
D|-2-----2-----|-0------0--0--0--0----0---0---0-| 
A|-3-----0-----|--------------------------------| 
E|-------------|--------------------------------| 
 
  C     A       D      D  D  D  Em    
 
E|-------------|-2------2--2--2--0--------------| 
B|-1-----2-----|-3------3--3--3--0--------------| 
G|-0-----2-----|-2------2--2--2--0--------------| 
D|-2-----2-----|-0------0--0--0--2--------------| 
A|-3-----0-----|-----------------2--------------| 
E|-------------|-----------------0--------------| 
 
 
Intervalo                                                      S 
|-12-------14---|-15-------17---|-8------8------|-------8-------| 
|---12-------12-|---12-------12-|---5------5----|----5-----5----| 
|---------------|---------------|-----5------5--|-5----------5\-| 
|---------------|---------------|---------------|---------------| 
|---------------|---------------|---------------|---------------| 
|---------------|---------------|---------------|---------------| 
| 
 
|-15-------r17---|-19-------20---|-12------------|---------------| 
|---17-------17-|---17-------17-|---13----------|---------------| 
|---------------|---------------|---------------|---------------| 
|---------------|---------------|---------------|---------------| 
|---------------|---------------|---------------|---------------| 
|---------------|---------------|---------------|---------------| 
 
|-0---------0---|-0--------0----|-0--7--7-0-----|--------0-------| 
|----1--------1-|----3-------3--|-12--0---12-0--|------0---------| 
|-------0-------|-------2-------|------0-------0|----0-----------| 
|---------------|---------------|---------------|----------------| 
|---------------|---------------|---------------|----------------| 
|---------------|---------------|---------------|-0--------------| 
| 
 
|-12------------|12/14----------|----12-12------|----------------| 
|----13---------|----15---------|---------------|----------------| 
|-------12------|-------14------|---------------|----------------| 
|---------------|---------------|---------------|----------------| 
|---------------|---------------|---------------|----------------| 
|---------------|---------------|---------------|----------------| 
                                                       S 
|-12-------14---|-15-------17---|-8------8------|-------8--------| 
|---12-------12-|---12-------12-|---5------5----|----5-----5-----| 
|---------------|---------------|-----5------5--|-5----------5\--| 
|---------------|---------------|---------------|----------------| 
|---------------|---------------|---------------|----------------| 
|---------------|---------------|---------------|----------------| 
| 
 
|-15-------17---|-19-------20---|-12------------|----------------| 
|---17-------17-|---17-------17-|---13----------|----------------| 
|---------------|---------------|---------------|----------------| 
|---------------|---------------|---------------|----------------| 
|---------------|---------------|---------------|----------------| 
|---------------|---------------|---------------|----------------| 
 
 
|-0-------0-----|-0------0------|-0-7----7-0----|-----7-------0---------------| 
|---1-------1---|---3------3----|----0-------0--|---------0-------0-----------| 
|-----0---------|-----2---------|-------0------0|-----0-----------------------| 
|---------------|---------------|---------------|-----------------------------| 
|---------------|---------------|---------------|-----------------------------| 
|---------------|---------------|---------------|-0--------------------3--2---| 
| 
              H       S                                  S            V 
|-12------------|---------------|---12----------|-----------------------------| 
|----13---------|-8-8^10-8-11\10|---------------|---------12--12\10-----------| 
|-------12------|---------------|---------------|--------------9\ 7--9-11-12-9| 
|---------------|---------------|---------------|-----------------------------| 
|---------------|---------------|---------------|-----------------------------| 
|---------------|---------------|---------------|-----------------------------| 
 
 
 
 
PARTE DA GUITARRA SOLO  
  
  E5               E5          D5                 C5 
 B          B  R   V             H  P             V          
E|----------------------------|------------------------------------| 
B|-15------15-----------------|------------------------------------| 
G|-14(16)--14(16)14-12--12-11-|-11^12^11-----11-----------12-14-12-| 
D|----------------------------|-----------14----12-14--------------| 
A|----------------------------|------------------------------------| 
E|----------------------------|------------------------------------| 
 
  E5                E5                  D5                    C5 
    B        B                            B  R                V S 
E|-------12-------12-------------------|---------------------------| 
B|----12-------12----15-12----12-------|------------14---14-13-----| 
G|-14(16)---14(16)---------15----15-14-|-12(14)12---14---14-13-12\-| 
D|-------------------------------------|---------------------------| 
A|-------------------------------------|---------------------------| 
E|-------------------------------------|---------------------------| 
 
   E5       E5         D5                           C5 
  S                            H  P  S              V 
E|-/15-14----15-14-17-|-15----14^15^14\12----15-14-----------------| 
B|--------12----------|-------------------12---------12------------| 
G|--------------------|-----------------------------------12-14-12-| 
D|--------------------|--------------------------------------------| 
A|--------------------|--------------------------------------------| 
E|--------------------|--------------------------------------------| 
 
  G5                      B5                 E5 
    B  R         B  R            B  R  P      
E|------------------------------------------|----------------------| 
B|-15------------------------15-15(17)15^12-|-17-------------------| 
G|-14(16)14--12-14(16)14-14-----------------|----------------------| 
D|------------------------------------------|----------------------| 
A|------------------------------------------|----------------------| 
E|------------------------------------------|----------------------| 
 
 
                S  H  P        S  P H P 
E|------------|--------------------|---------------|---------------| 
B|-(17)-------|15\12^15^12\\\\\\\-7^5^7^5----------|-(5)-----------| 
G|------------|--------------------|---------------|---------------| 
A|------------|--------------------|---------------|---------------| 
D|------------|--------------------|---------------|---------------| 
E|------------|--------------------|---------------|---------------| 
 
 
 
|-------0-----|-------0-----|-------0-----|-------0-----| 
|-----0---0---|-----0---0---|-----0---0---|-----0---0---| 
|---0-------0-|---0-------0-|---0-------0-|---0---------| 
|-------------|-------------|-------------|-------------| 
|-------------|-------------|-------------|-------------| 
|-0-----------|-0-----------|-0-----------|-0-----------| 
 
 
Segunda parte da guitarra principal 
 
  Em                        D           C 
   
E|-------------3-----0-----|-2-----3-----0-----------| 
B|---------0-----------0---|---------3-------3-------| 
G|-----0-----------0-----0-|-----------0-------0-----| 
D|-------------------------|-0-----------------------| 
A|-------------------------|-------------3-----------| 
E|-0-----------------------|---------------------3-2-| 
 
  Em                        D           C 
                                     P 
E|-------------3-----0-----|-2-----------------------| 
B|---------0-----------0---|-------3-----3-----------| 
G|-----0-----------0-----0-|---------2^0-----0-------| 
D|-------------------------|-0--0--------------------| 
A|-------------------------|-------------3-----------| 
E|-0-----------------------|---------------------3-2-| 
 
  Em                        D           C 
 
E|-------------3-----0-----|-2-----3-----3-----------| 
B|---------0-----------0---|---------3-------3-------| 
G|-----0-----------0-----0-|-----------0---------0---| 
D|-------------------------|-0--0--------------------| 
A|-------------------------|-------------3-----------| 
E|-0-----------------------|-------------------------| 
 
  G           B7            Em 
 
E|---------3---2-----2-----|-0-----0-----|-------------0-----------| 
B|---------3---0-----0-----|-----0---0---|---------0-------0-------| 
G|-----0-------2-----2-----|---0-------0-|-----0-------------------| 
D|-------------------------|-------------|-------------------------| 
A|-------------2-----2-----|-------------|-------------------------| 
E|-3-----------------------|-0-----------|-0-------------------3-2-| 
 
 
 Final 
 
  Em                             
                                           P 
E|-0-----0-----|-------0---7-|-7-----------7^0---------| 
B|----0---0---|-----0---0---|-----0-----------0-------| 
G|---0-------0-|---0---------|---------0-----------0---| 
D|-------------|-------------|-------------------------| 
A|------------|-------------|-------------------------| 
E|-0-----------|-0-----------|-0-----------------------| 
 
 
                   H S        S       
E|---------7---8---7^8\5--7---5\2--0---| 
B|---------0---0----------0-----------.| 
G|-----0-------------------------------| 
D|-------------------------------------| 
A|------------------------------------.| 
E|-0-----------------------------------| 
 

  

top cifras metallica
top cifras thrash metal
ver mais cifras desse artista var letras desse artista
Top cifras » Top artistas »
Anuncie no Cifras Termos de Uso Política de Privacidade Material de DivulgaçãoFale Conosco
Petaxxon Comunicação Online
Cifras.com.br - Melhor e mais completo site de cifras e tablaturas do Brasil
Mais de 1 milhão de cifras cadastradas desde 2003
As informações contidas no Cifras.com.br são colaborações de seus usuários e podem conter erros, sendo assim, não se responsabiliza sobre nenhuma destas.
R7 Música
close
 
redimensionar