» Cifras.com.br » Letras de músicas » Notícias » TV Cifras » Guitar Pro » Gospel
Logo Cifras.com.br

Início » Thrash Metal » Metallica »

Welcome home(sanitarium) (Live)

Metallica

Metallica
Welcome home(sanitarium) (Live)

Escute esta músicas

Tom

Formatação

colunas A+ A- cores

Instrumento

cifras tablaturaver outros instrumentos

Nível

Expert

Nível: Expert

Transcrição

enviada por Jonh Petrucci


    
WELCOME HOME (SANITARIUM) (Live) 
Gtr I  (E A D G B E) - 'James Hetfield - Rhythm w/dist' 
Gtr II (E A D G B E) - 'Kirk Hammett - Rhythm / Lead w/dist' 
 
Intro 
    Gtr I 
                                   |-3-| 
  H    Q    Q       H       +E   E S S S E 
|---------<12>--|----------------3-3h5p3p2-| 
|---------------|-<12>----(<12>)---0-------| 
|---------------|--------------------------| 
|---------------|--------------------------| 
|---------------|--------------------------| 
|-0-------------|--(0)---------------------| 
  W                +W 
 
 
  H    Q    Q       H       +E   E E.S 
|---------<12>--|----------------2-2h3p===| 
|---------------|-<12>----(<12>)---0------| 
|---------------|-------------------------| 
|---------------|-------------------------| 
|---------------|-------------------------| 
|-0-------------|--(0)--------------------| 
  W                +W 
 
 
  H      E    Q.     H      E    Q.     H     E   Q.     H      E    E    Q 
|-0----<12>--------|------<12>--------|------<7>-------|------<12>------------|| 
|-----------<12>---|-----------<12>---|----------<7>---|-----------<12>-------|| 
|------------------|------------------|----------------|----------------<12>--|| 
|------------------|------------------|----------------|----------------------|| 
|------------------|------------------|----------------|----------------------|| 
|-0----------------|-0----------------|-0--------------|-0--------------------|| 
  W                  W                  W                W 
 
 
                                       2/4 
  E E E E E E E E   E E E E E E E a E   E E a E E 
|-----------------|-------------------|-----------| 
|-----------------|-------------------|-----------| 
|-------0-------0-|-------0-----------|-----------| 
|-----4-------5---|-----7-------0-----|---0-----0-| 
|---2-------3-----|---5-------4-------|-2---------| 
|-0-------0-------|-0-------5-----5s3-|-----3s5---| 
|-Rhy Fig 1                         end Rhy Fig 1-| 
 
 4/4    
w/Rhy Fig 1                                 2/4 
  Gtr II 
  E 
  W                 +W                   +H 
  |                  |                    | 
  o                  /                    / 
|-----------------|--------------------|------------| 
 
 
                                         1. 
Rhy Fig 1 x 1.75 
 
 
  2. 
              4/4 
  Gtr II 
                            ~~ 
  E Q.          E  E  E  E  Q    E  E 
|------------|------------------------| 
|------------|------------------------| 
|------------|------------------------| 
|------------|-14----16-17-14---14-17-| 
|------------|----14------------------| 
|---3/-------|------------------------| 
| 
| Gtr I 
| E E  a E E 
|------------| 
|------------| 
|------------| w/Rhy Fig 1 x4 
|---0------0-| 
|-2----------| 
|------3s5---| 
 
 
                            2/4 
                     ~~~~~~~~~~~~~ 
   E  E  E  E  E  E  Q        +Q       E  E 
|-------------15s17-17-----|-(17)-----17\-x/--| 
|-------15s17--------------|--------------x/--| 
|-14s16--------------------|------------------| 
|--------------------------|------------------| 
|--------------------------|------------------| 
|--------------------------|------------------| 
 
 
 4/4 
  E  S  S  E  E  Q    S  S  E 
|------19-19-15-17------------| 
|---20----20-17-19---17s19-17-| 
|-----------------------------| 
|-----------------------------| 
|-----------------------------| 
|-----------------------------| 
 
 
                                     2/4 
                       |--3--| 
   E  S  S  E  E  Q    S  S  S    E    E  E    E  E 
|-----------------------------------|---------------| 
|-15-15h17-15-13-12---12h13p12---14-|---------------| 
|-----------------------------------|-12s11---------| 
|-----------------------------------|---------12----| 
|-----------------------------------|------------14-| 
|-----------------------------------|---------------| 
 
 
 4/4 
      ~~~~~~~~~~~~~~~ 
   S  E.    Q    +Q.      +E 
|------------------------------| 
|------------------------------| 
|------------------------------| 
|-12h14----14---(14)-----(14)/-| 
|------------------------------| 
|------------------------------| 
 
 
                                    2/4 
   S  S  Q    S  S  Q    S  S    E    S  S  S  S    S  S  S  S 
|-------19---19-----------------17-|-17-15-14------------------| 
|----17---------17---------15------|----------17---15-14-------| 
|-16---------------16---14---------|---------------------16-14-| 
|----------------------------------|---------------------------| 
|----------------------------------|---------------------------| 
|----------------------------------|---------------------------| 
 
 
 4/4 
            ~~~~ 
   Q       +H         S  S  S  S 
|-----------------------------12-| 
|--------------------------13----| 
|-12b14r==(12)----------14-------| 
|--------------------14----------| 
|--------------------------------| 
|--------------------------------| 
 
 
                                       2/4 
   |--3--| 
   S  S  S  E  E.    +S    E E E    E   E E    E E 
|-10h12p10---------------------5------|---3--------|| 
|----------13-12----(12)\-------------|------------|| 
|----------------------------6--------|-4--------6-|| 
|-------------------------/7-------/5-|-------/7---|| 
|-------------------------------------|------------|| 
|-------------------------------------|------------|| 
 
 
   Verses 
    $ 
   Rhy Fig 1 x4 
 
w/Rhy Fig 1 
 4/4                                   2/4 
  Gtr II 
  PM--------------------------------------------| 
  E E E E E E E E   E E E E E E E   E   E E   E E 
|-----------------|-------------------|-----------| 
|-----------------|-------------------|-----------| 
|-----------------|-------------------|-----------| 
|-----------------|-------------------|-----------| 
|-----2-2-----3-3-|-----5-5-----7-----|---5---7-5-| 
|-0-0-----0-0-----|-0-0-----5-5-5---3-|-3-3---5-3-| 
 
 
 4/4                                   2/4 
  PM----------------------|             PM 
  E E E E E E E E   E E E E E S S E E   E S S E E 
|-----------------|-------------------|-----------|| 
|-----------------|-------------------|-----------|| 
|-----------------|-------------------|-----------|| 
|-----------------|-------------------|-----------|| 
|-----2-2-----3-3-|-----5-5-7-----7-5-|-------7-5-|| 
|-0-0-----0-0-----|-0-0-----5-x-x-5-3-|-3-x-x-5-3-|| 
| 
|                                       PM 
| E E E E E E E E   E E E E E S S E E   E S S E E 
|-----------------|-------------------|-----------|| 
|-----------------|-------------------|-----------|| 
|-------0-------0-|-------0-----------|-----------|| 
|-----4-------5---|-----7-------------|-----------|| 
|---2-------3-----|---5-----7-----7-5-|-------7-5-|| 
|-0-------0-------|-0-------5-x-x-5-3-|-3-x-x-5-3-|| 
 
 
 Chorus 
 4/4 
  Gtrs I, II 
                                            PM--------| 
                                      |-3-| 
  Q  S S S S S S S S S S S S   +H     S S S S S S S S S 
|----------------------------|--------------------------| 
|----------------------------|--------------------------| 
|----------------------------|--------------------------| 
|----------------5s4-----5s4-|-(4)----0h2p0-------------| 
|--------5s4-----3s2-----3s2-|-(2)----------3-2---------| 
|-0--x-x-3s2-x-x-----x-x-----|------------------5-3-2-3-| 
 
 
  Q  S S S S S S S S S S S S 
|------------------------------| 
|------------------------------| 
|------------------------------| 
|----------------5s4-----5s4---| 
|--------5s4-----3s2-----3s2---| 
|-0--x-x-3s2-x-x-----x-x-------| 
 
 
  PM------------| 
  S S S S S S S S S S E +S  S E 
|-------------------------------| 
|-------------------------------| 
|-------------------------------| 
|-------------------------------| 
|-2-2-2-2-2-2-2-2-3-2-------x-3-| 
|---------------------3-(3)-x-1-| 
 
 
                                            PM--------| 
                                      |-3-| 
  Q  S S S S S S S S S S S S   +H     S S S S S S S S S 
|----------------------------|---------------------------| 
|----------------------------|---------------------------| 
|----------------------------|---------------------------| 
|----------------5s4-----5s4-|-(4)----0h2p0--------------| 
|--------5s4-----3s2-----3s2-|-(2)----------3-2----------| 
|-0--x-x-3s2-x-x-----x-x-----|------------------5-3-2-3--| 
 
 
                              To Coda 
  Q  S S S S S S S S S S e   W 
|--------------------------|----------| 
|--------------------------|----------| 
|--------------------------|----------| 
|----------------5s4-----5-|-4--------| 
|--------5s4-----3s2-----3-|-2--------| 
|-0--x-x-3s2-x-x-----x-x---|----------| 
 
 
                                   Guitar Break 
  Gtr II 
   E S S S S S S S S S S S  S  e     S  S  S  S  E  E  H 
|--------------------------------||-------15-17-19-19----------| 
|-----------------------------10-||-17-19-------------17-------| 
|--------------------7-7-9s11----||----------------------------| 
|------------7-7-7s9-------------||----------------------------| 
|----5-5-7s9---------------------||----------------------------| 
|-/7-----------------------------||----------------------------| 
| 
| Gtr I 
|  ~~ 
|  W 
|--------------------------------|| 
|--------------------------------|| 
|--------------------------------|| w/Rhy Fig 1 x4 
|--------------------------------|| 
|--4-----------------------------|| 
|--------------------------------|| 
 
 
                                         2/4 
                                           ~~ 
   S  S  E  E  S  S  E  E  S  T  T    e    H 
|-14h15p14----14h15p14----14-14h15---14-|------------| 
|----------17----------15---------------|-12---------| 
|---------------------------------------|------------| 
|---------------------------------------|------------| 
|---------------------------------------|------------| 
|---------------------------------------|------------| 
 
 
 4/4 
   Q.        +E   Q.      S  S 
|------------------------14-15-| 
|-15b17r====(15)-15------------| 
|------------------------------| 
|------------------------------| 
|------------------------------| 
|------------------------------| 
 
 
                                                              2/4 
               |--3--| 
   S  S  S  S  T  T  T  S  S  S  S  S  T  T  S  S  S    S  S    S  S  S  S    S  S  S  S 
|-17-15-14-15-14h15p14----14---------------------------------|----------------------------| 
|----------------------17----15-17-14-15p14----14------------|----------------------------| 
|-------------------------------------------16----16---14s13-|-14p13----13----------------| 
|------------------------------------------------------------|-------16------16-14-12-----| 
|------------------------------------------------------------|------------------------14--| 
|------------------------------------------------------------|----------------------------| 
 
 
 4/4 
      ~~~~~~~~~~~~~~~~~ 
   S  E.    +Q     +E  E  S  S  S  S 
|------------------------------17----| 
|------------------------17s15----15s| 
|------------------------------------| 
|-12h14----(14)---(14)---------------| 
|------------------------------------| 
|------------------------------------| 
 
 
                                               2/4 
   S  S  S  S  S  S  S  S  S S  S S S S   S S   S S e   e    E 
|----15-------14-------12------10-------------|----------------| 
|-14----14s12----12s10----10s8----8s7-7-------|----------------| 
|-----------------------------------------7-7-|---7-9---9b11-9-| 
|---------------------------------------------|-9--------------| 
|---------------------------------------------|----------------| 
|---------------------------------------------|----------------| 
 
 
                                         D.S. al Coda 
 4/4                                       2/4 
  ~                       ~ 
  H       E S S e e   e e Q    E E E    E   E E    E E 
|-------------------|--------------5------|---3--------|| 
|-------------------|---------------------|------------|| 
|-9---------9-9-9-9-|-9-7--------6--------|-4--------6-|| 
|-------------------|-----5---/7-------/5-|-------/7---|| 
|-------------------|---------------------|------------|| 
|-------------------|---------------------|------------|| 
 
 
  & 
                     4/4 
  Gtrs I, II 
        PM--------| 
  |-3-| 
  S S S S S S S S S   Q  S S S S S S S S S S e   W 
|-------------------|--------------------------|------| 
|-------------------|--------------------------|------| 
|-------------------|--------------------------|------| 
|-0h2p0-------------|----------------5s4-----5-|-4----| 
|-------3-2---------|--------5s4-----3s2-----3-|-2----| 
|-----------5-3-2-3-|-0--x-x-3s2-x-x-----x-x---|------| 
 
 
                    Double Time Q=196 
 2/4                 4/4 
        PM--------| 
  |-3-| 
  S S S S S S S S S   W          +W           +W           W 
|-------------------|----------|------------|------------|-------| 
|-------------------|----------|------------|------------|-------| 
|-------------------|----------|------------|------------|-------| 
|-0h2p0-------------|-2--------|-(2)--------|-(2)--------|-------| 
|-------3-2---------|-2--------|-(2)--------|-(2)--------|-x\----| 
|-----------5-3-2-3-|-0--------|-(0)--------|-(0)--------|-x\----| 
 
 
  PM------------------------------------------------------------------| 
  E E E E E E E E   E E E E E E E E   E E E E E E E E   E E E E E E E E 
|-----------------|-----------------|-----------------|-----------------|| 
|-----------------|-----------------|-----------------|-----------------|| 
|-----------------|-----------------|-----------------|-----------------|| 
|-----------------|-----------------|-----------------|-----------------|| 
|-----------------|-----------------|-----------------|-----------------|| 
|-0-0-0-0-0-0-0-0-|-0-0-0-0-0-0-0-0-|-0-0-0-0-0-0-0-0-|-0-0-0-0-0-0-0-0-|| 
 
 
              PM--------------------|                           PM 
    E E E E E E E E   E E E E E E E E   E E E E E E E E   E E E E E E E E 
||------------------|-----------------|-----------------|-------------------|| 
||o-----------------|-----------------|-----------------|------------------o|| 
||------------------|-----------------|-----------------|-------------------|| 
||--0h1---0h1-------|-----------------|-0h1---0h1---0h1-|---0h2-------------|| 
||o-0h1---0h1-------|-----------------|-0h1---0h1---0h1-|---0h2---2---2----o|| 
||------------0-0-0-|-0-0-0-0-0-0-0-0-|-----------------|-------0-0---0-----|| 
 |-Rhy Fig 2                                                  end Rhy Fig 2-| 
 
w/Rhy Fig 2 x2 
  Gtr I 
            PM--| 
  E E E E E E E E    E   E   E   E   E   E   E   E 
|-----------------|---------------------------------| 
|-----------------|---------------------------------| 
|-----------------|---------------------------------| 
|-0h1---0h1-------|---------------------------------| 
|-0h1---0h1-------|---------------------------------| 
|-----------0-0-0-|-<3>-<3>-<5>-<5>-<7>-<7>-<5>-<5>-| 
 
 
 
                          PM 
  E E E E E E E E   E E E E E E E E 
|-----------------|-----------------| 
|-----------------|-----------------| 
|-----------------|-----------------| 
|-0h1---0h1---0h1-|---0h2-----------| 
|-0h1---0h1---0h1-|---0h2---2---2---| 
|-----------------|-------0-0---0---| 
 
 
            PM--|                                             PM 
  E E E E E E E E   E Q   E Q   Q     E E E E E E E E   E E E E E E E E 
|-----------------|-----------------|-----------------|-----------------|| 
|-----------------|-----------------|-----------------|-----------------|| 
|-----------------|-----------------|-----------------|-----------------|| 
|-0h1---0h1-------|-----------------|-0h1---0h1---0h1-|---0h2-----------|| 
|-0h1---0h1-------|-----------------|-0h1---0h1---0h1-|---0h2---2---2---|| 
|-----------0-0-0-|-0-0---0-0---0---|-----------------|-------0-0---0---|| 
 
 
  A Tempo Q=98 
  Gtrs I, II 
  S e S H.        S e S H.        S e S H. 
|---------------|---------------|-------------| 
|---------------|---------------|-------------| 
|---------------|-----7-7-------|-------------| 
|-0-2-2-2-------|-0-2-7-7-------|-0-2-3-3-----| 
|-0-2-2-2-------|-0-2-5-5-------|-0-2-3-3-----| 
|-----0-0-------|---------------|-----1-1-----| 
 
 
  S e S Q  S e S Q    S e S H.        S e S H. 
|-------------------|---------------|-------------| 
|-------------------|---------------|-------------| 
|-----5-5------4-4--|---------------|-----7-7-----| 
|-0-2-5-5--5-4-4-4--|-0-2-2-2-------|-0-2-7-7-----| 
|-0-2-3-3--3-2-2-2--|-0-2-2-2-------|-0-2-5-5-----| 
|-------------------|-----0-0-------|-------------| 
 
 
                                      PM--------------------| 
  S e S H.        S e S Q  S e S Q    S S S S S S S S S S S S   Q 
|---------------|-------------------|--------------------------------|| 
|---------------|-------------------|--------------------------------|| 
|---------------|-----5-5------4-4--|--------------------------------|| 
|-0-2-3-3-------|-0-2-5-5--5-4-4-4--|--------------------------------|| 
|-0-2-3-3-------|-0-2-3-3--3-2-2-2--|--------------------------------|| 
|-----1-1-------|-------------------|-0-0-0-0-0-0-0-0-0-0-0-0-(12)\--|| 
 
 
 Guitar Solo 
w/Rhy Fig 2 x4 
  Double Time Q=196 
  Gtr II 
   S  S  S  S  S  S  S  S  S  S  S  S  S  S  S  S 
|-------------------------------------------------| 
|-------------------------------------------------| 
|-12-12-12-12-12-12-12-12-16-12-12-12-12-12-12-12-| 
|-------------------------------------------------| 
|-------------------------------------------------| 
|-------------------------------------------------| 
| 
 
   S  S  S  S  S  S  S  S  S  S  S  S  S  S  S  S 
|-------------------------------------------------| 
|-------------------------------------------------| 
|-16-12-12-12-12-12-12-12-12-12-12-12-12-12-12-12-| 
|-------------------------------------------------| 
|-------------------------------------------------| 
|-------------------------------------------------| 
 
 
   S  S  S  S  S  S  S  S  S  S  S  S  S  S  S  S 
|----------------------------------------------12-| 
|-------------------------13-12-12-12-15-12-12----| 
|-14-12-12-12-16-12-12-12-------------------------| 
|-------------------------------------------------| 
|-------------------------------------------------| 
|-------------------------------------------------| 
 
 
               |---3---|                 |---3---|  |---3---|  |---3---|  |---3---| 
   S  S  S  S  E  E    E  Q      E  E    E  E    E  E  E    E  E  E    E  E  E    E 
|-13-12-12-12-15-12---12-17\-------12-|-17p15p==12------------17p15p==12-------------| 
|------------------------------/12----|------------17p15p==12------------17p15p==12--| 
|-------------------------------------|----------------------------------------------| 
|-------------------------------------|----------------------------------------------| 
|-------------------------------------|----------------------------------------------| 
|-------------------------------------|----------------------------------------------| 
 
 
   |---3---|  |---3---|  |---3---|  |---3---| 
   E  E    E  E  E    E  E  E    E  E  E    E 
|-17p15p==12------------17p15p==12------------| 
|------------17p15p==12------------17p15p==12-| 
|---------------------------------------------| 
|---------------------------------------------| 
|---------------------------------------------| 
|---------------------------------------------| 
 
 
                     ~~~~~                   ~~~~~~~ 
   Q.        E      +Q      E  E    E  E  E  E  +Q    E E 
|-17b19-----17b19==(17)r---17-15-|-14----14----------------| 
|--------------------------------|----15----15-(15)--------| 
|--------------------------------|--------------------2----| 
|--------------------------------|----------------------4--| 
|--------------------------------|-------------------------| 
|--------------------------------|-------------------------| 
 
 
                              ~~~~~~~~~~ 
  Q     E E E E S S E   E E E E    +Q.      E   Q     E E    +E   E E E 
|---------------------|-----------------------|-------------------------| 
|---------------------|-----------------------|-------5-----------5---5-| 
|-------4-2---2-4-2---|---------------------4-|-7b9-----7b9==(7)r---7---| 
|-4b6-------4-------4-|-3-2---2b3==(2)r-------|-------------------------| 
|---------------------|-----5-----------------|-------------------------| 
|---------------------|-----------------------|-------------------------| 
 
 
                            |-----3------|    |-----3------| 
  E   E E   E Q     E  E    Q       Q    Q    Q       Q    Q 
|------------------------|-------------------15b17---15---14---| 
|-----5-----5---------12-|-15b17---15---12---------------------| 
|-7b9---7b9---7\---14----|-------------------------------------| 
|------------------------|-------------------------------------| 
|------------------------|-------------------------------------| 
|------------------------|-------------------------------------| 
 
 
                  ~~~~~ 
   |----3----| 
   Q    Q    Q    Q.        S  S 
|-12--------12-------------------| 
|------15--------15b17-----17-17-| 
|--------------------------------| 
|--------------------------------| 
|--------------------------------| 
|--------------------------------| 
 
 
   S  S  S  S  S  S  S  S  S  S   E   E  S  S 
|-15-------15-17-15----15-19-17-(15)S21-19-22-| 
|----17-18----------19------------------------| 
|---------------------------------------------| 
|---------------------------------------------| 
|---------------------------------------------| 
|---------------------------------------------| 
 
 
   S  S S  S  Q       H 
|-22-19---22-22b24---20b22-------|| 
|-------x------------------------|| 
|--------------------------------|| 
|--------------------------------|| 
|--------------------------------|| 
|--------------------------------|| 
 
 
  A Tempo Q=98 
  Gtrs I, II 
  S e S Q  e E Q    S e S Q  e E Q 
|-----------------|-----------------| 
|-----------------|-----------------| 
|-----------------|-----7-7--7------| 
|-0-2-2-2--2------|-0-2-7-7--7------| 
|-0-2-2-2--2------|-0-2-5-5--5------| 
|-----0-0--0------|-----------------| 
 
 
  Gtr II 
                         ~         PM--| 
  S e S Q    S S E E E   H         S S S S +E  E 
|----------------------|-------------------------| 
|----------------------|-------------------------| 
|----------------------|-------------------------| 
|-0-2-2-2--------------|-------------------------| 
|-0-2-2-2---/7-7-7-5-7-|-9---------9-9-9-7-(7)-9-| 
|-----0-0--------------|-------------------------| 
| 
| Gtr I 
| S e S H.               S e S H. 
|----------------------|-------------------------| 
|----------------------|-------------------------| 
|----------------------|-----7-7-----------------| 
|-0-2-2-2--------------|-0-2-7-7-----------------| 
|-0-2-2-2--------------|-0-2-5-5-----------------| 
|-----0-0--------------|-------------------------| 
|-Rhy Fig 3 
 
         ~~~~~~ PM--|                 ~~~~~~~~~       PM--| 
   E   S S +Q   S S S  S  +E  a  a S  S    +H         S S S S +E  E 
|----------------------------------------|--------------------------| 
|----------------------------------------|--------------------------| 
|----------------------------------------|--------------------------| 
|----------------------------------------|--------------------------| 
|-10---9-8-(8)--8-8-8-10-(10)-8h10p8-{7}-|-(7)--------6-6-6-7-(7)-9-| 
|----------------------------------------|--------------------------| 
| 
|  S e   S  H.                              S  e S Q  S e   S  Q 
|----------------------------------------|--------------------------| 
|----------------------------------------|--------------------------| 
|----------------------------------------|-------5-5--------4--4----| 
|--0-2---3--3----------------------------|--0--2-5-5--5-4---4--4----| 
|--0-2---3--3----------------------------|--0--2-3-3--3-2---2--2----| 
|--------1--1----------------------------|--------------------------| 
                                                      end Rhy Fig 3-| 
 
                                  ~         PM--| 
  E   +E     Q   S S S S +S  E.   H         S S S S +E  E 
|-------------------------------|-------------------------| 
|-------------------------------|-------------------------| 
|-------------------------------|-------------------------| 
|-------------------------------|-------------------------| 
|-7---(7)\-------7-7-7-5-(5)-7--|-9---------9-9-9-7-(7)-9-| 
|------------0------------------|-------------------------| 
| 
| S e      S H.                   S e S H. 
|-------------------------------|-------------------------| 
|-------------------------------|-------------------------| 
|-------------------------------|-----7-7-----------------| 
|-0-2------2-2------------------|-0-2-7-7-----------------| 
|-0-2------2-2------------------|-0-2-5-5-----------------| 
|----------0-0------------------|-------------------------| 
 
 
         ~~~~~ PM--|                ~~~~~~~~       PM--|         ~ 
   E   S S Q   S S S  S  +E  a  a S S   +H         S S S S +S  E S 
|-------------------------------------|-----------------------------|| 
|-------------------------------------|-----------------------------|| 
|-------------------------------------|-----------------------------|| 
|-------------------------------------|-----------------------------|| 
|-10---9-8-8---8-8-8-10-(10)-8h10p8-7-|-(7)--------6-6-6-7-(7)-9-7--|| 
|-------------------------------------|-----------------------------|| 
| 
|                                                  PM--|         ~ 
|  S e   S H.                            S  e S Q  S S S S +S  E S 
|-------------------------------------|-----------------------------|| 
|-------------------------------------|-----------------------------|| 
|-------------------------------------|-------5-5-------------------|| 
|--0-2---3-3--------------------------|--0--2-5-5--4-4-4-5-(5)-4-5--|| 
|--0-2---3-3--------------------------|--0--2-3-3-------------------|| 
|--------1-1--------------------------|-----------------------------|| 
 
 
    Gtrs I, II 
-----------PM------------------------------------ 
    +H     S S S S +S  E.   H    S S S S +S  E. 
||------------------------|---------------------| 
||o-----------------------|---------------------| 
||------------------------|-2----2-2-2-------2--| 
||--(5)----5-5-5-4-(4)-5--|------------5-(5)----| 
||o-(7)----7-7-7-5-(5)-7--|-9----9-9-9-7-(7)-9--| 
||------------------------|---------------------| 
    +H     S S S S +S  E.   H    S S S S +S  E. 
 
 
 -------------PM--| 
   E S S +Q   S S S  S  +S  a  a E S 
|------------------------------------| 
|------------------------------------| 
|----4-5-(5)--5-5-5--7--(7)-8p=7p5---| 
|--5-------------------------------5-| 
|-10-9-8-(8)--8-8-8-10-(10)-8h10p8-7-| 
|------------------------------------| 
   E S S +Q   S S S  S  +S  a  a E S 
 
 
  1.                         2. 
---------PM--------------------------PM--| 
  +H     S S S S +S  E S      +H     S S S S +S  E. 
|-------------------------||------------------------|| 
|------------------------o||------------------------|| 
|--------------------4----||---------------------4--|| 
|-(5)----4-4-4-5-(5)---5--||--(5)----4-4-4-5-(5)----|| 
|-(7)----6-6-6-7-(7)-9-7-o||--(7)----6-6-6-7-(7)-9--|| 
|-------------------------||------------------------|| 
  +H     S S S S +S  E S      +H     S S S S +S  E. 
 
 
 Guitar Solo 
w/Rhy Fig 3 x3 
  Gtr II 
   ~~ 
   H         S S S S +S  E.   E    S  S  +Q    S  S  S  S  +S   E. 
|---------------------------|--------------------------------------| 
|---------------------------|--------------------------------------| 
|---------------------------|--------------------------------------| 
|---------------------------|--------------------------------------| 
|-/7---------7-7-7-6-(6)-7--|-9---10-12-(12)--12-12-12-10-(10)-12--| 
|---------------------------|--------------------------------------| 
 
 
   S  S  S  S  +S   S  e  E.    S      +S   +S       +S   +S 
|--------------------------------------------------------------| 
|--------------------------------------------------------------| 
|-------12------------12-14b16-14b16==(14)r(14)b16==(14)r(14)--| 
|----------14-(14)-14------------------------------------------| 
|-12s14--------------------------------------------------------| 
|--------------------------------------------------------------| 
 
 
 
   S  E.    +E   S  S  S  S  S  S  +E   S  S 
|--------------------------------------------| 
|---------------------12-------12-(12)-------| 
|-12------------------12-------12-(12)-------| 
|----14----(14)-14-14----14-14---------14-14-| 
|--------------------------------------------| 
|--------------------------------------------| 
 
            |----3-----| 
   S  S  S  S  +S   S  S  S  S     +S   S  S  S  +S   S  E 
|----------------------------------------------------------| 
|-12-------12-(12)-----------------------------------------| 
|-12-------12-(12)----12-14-14b16r(14)p12---------------12-| 
|----14-14---------14---------------------14-14-(14)-14----| 
|----------------------------------------------------------| 
|----------------------------------------------------------| 
 
 
                   ~~~~ 
                                                |--3--| 
   S     S  S  S  +E   S  S  E.    S      +E    S  S  S 
|-------12---------------12-15b17-15b17==(15)r-12h15p12-| 
|----------12-15-(15)-15--------------------------------| 
|-14b16-------------------------------------------------| 
|-------------------------------------------------------| 
|-------------------------------------------------------| 
|-------------------------------------------------------| 
 
 
   |---3---| 
   S  S    S  S  S  S   S  S  S      +S   +T   T  S  S     +T   T  S  S     +T   T 
|-15p12h==15-----------------------------------------------------------------------| 
|------------12--------------------------------------------------------------------| 
|---------------14-12-----12-14b16==(14)r(14)p12-14-14b16r(14)p12-14-14b16r(14)p12-| 
|----------------------14----------------------------------------------------------| 
|----------------------------------------------------------------------------------| 
|----------------------------------------------------------------------------------| 
 
 
                     ~~~~~                                    ~~~ 
   S  S     T  T  S  Q      S  S  S  S  +S   E  S     E.   S  H. 
|-------------------------------------------------||-----------------------| 
|-------------------15b17-------------------------||-12s==17-17------------| 
|-14-14b16r14p12-14--------11-11-11-12-(12)-14s16-||-----------------------| 
|-------------------------------------------------||-----------------------| 
|-------------------------------------------------||-----------------------| 
|-------------------------------------------------||-----------------------| 
| 
|                                                                 |-3-| 
|  S  e           S  Q      S  e     S   Q            S e  S  Q   E E E Q 
|-------------------------------------------------||-----------------------| 
|-------------------------------------------------||-----------------------| 
|-----------------5--5---------------4---4--------||-----------------------| 
|--0--2-----------5--5------5--4-----4---4--------||--0-2--2--2---2-2-2-2--| 
|--0--2-----------3--3------3--2-----2---2--------||--0-2--2--2---2-2-2-2--| 
|-------------------------------------------------||-------0--0---0-0-0-0--| 
 
 
  Gtrs I, II 
           PM--|               PM--| 
           |-3-|               |-3-| 
  S e S Q  E E E Q    S e S Q  E E E Q 
|-------------------|-------------------| 
|-------------------|-------------------| 
|-----7-7--7-7-7-7--|-------------------| 
|-0-2-7-7--7-7-7-7--|-0-2-3-3--3-3-3-3--| 
|-0-2-5-5--5-5-5-5--|-0-2-3-3--3-3-3-3--| 
|-------------------|-----1-1--1-1-1-1--| 
 
 
           PM--|      PM--|    PM--| 
           |-3-|      |-3-|    |-3-| 
  S e S Q  E E E Q    E E E Q  E E E Q 
|-------------------|--------------------| 
|-------------------|--------------------| 
|-----5-5--4-4-4-4--|-4-4-4-4--4-4-4-4---| 
|-0-2-5-5--4-4-4-4--|-4-4-4-4--4-4-4-4---| 
|-0-2-3-3--2-2-2-2--|-2-2-2-2--2-2-2-2---| 
|-------------------|--------------------| 
 
 
  Gtr II 
                                         TP 
  Q  Q  Q  Q    +W                       W 
|-------------|------------------------|------: 
|-------------|------------------------|------: 
|-4--2--------|------------------------|------: 
|-4--2--5--4--|-(4)--------------------|-2----: 
|-2--0--5--4--|-(4)--------------------|-2----: 
|-------3--2--|-(2)--------------------|-0----: 
| 
| Gtr I 
|       ~~~~~                            TP 
| Q  Q  Q  Q     H       +Q      +Q      W 
|-------------|------------------------|------: 
|-------------|------------------------|------: 
|-4-----------|------------------------|------: 
|-4-----------|------------------------|-2----: 
|-2--0--2--2--|------------------------|-2----: 
|-------------|--2b3=====(2)b5===(2)r--|-0----: 
 
 
                         |--3--|                       |------6-------| 
   S   S  S  S  S     S  S  S  S  S  T  T  T  T  T  T  S  S  S  S  S  S 
|-----12-------------12-------------------12----------12----------------: 
|--------15p12----------15p12----12-15p12----15p12-------15p12----------: 
|--------------14b16----------14-------------------14----------14p12----: 
|--------------------------------------------------------------------14-: 
|-----------------------------------------------------------------------: 
|-----------------------------------------------------------------------: 
| 
|  TP 
| +W 
|-----------------------------------------------------------------------: 
|-----------------------------------------------------------------------: 
|-----------------------------------------------------------------------: 
|-(2)-------------------------------------------------------------------: 
|-(2)-------------------------------------------------------------------: 
|-(0)-------------------------------------------------------------------: 
 
 
                                                                            |------6-------| 
   T   T  T  T  T  T  T  T  T  T  T  T  T  T  T  T  T  T  T  T  T  T  T  T  S  S  S  S  S  S 
|---------------------------------------------------------------------------------------------: 
|---------------------------------------------------------------------------------------------: 
|-12h=14p12----12h14p12----12h14p12----12h14p12----12h14p12----12h14p12----12h14p12-----------: 
|-----------14----------14----------14----------14----------14----------14----------14-12-----: 
|-----------------------------------------------------------------------------------------14--: 
|---------------------------------------------------------------------------------------------: 
| 
|  TP 
| +W 
|---------------------------------------------------------------------------------------------: 
|---------------------------------------------------------------------------------------------: 
|---------------------------------------------------------------------------------------------: 
|-(2)-----------------------------------------------------------------------------------------: 
|-(2)-----------------------------------------------------------------------------------------: 
|-(0)-----------------------------------------------------------------------------------------: 
 
 
   |-------6-------|                       |------6-------| 
   S   S  S  S  S  S  S  E  S  S  S  S  S  S  S  S  S  S  S 
|--------------------------------------------------------15-: 
|--------------------------------------------------17-19----: 
|--------------------------------------------18-19----------: 
|-12h=14p12-------------------------12-14-19----------------: 
|-----------14-13-12----12----12-14-------------------------: 
|--------------------15----15-------------------------------: 
| 
|  TP 
| +W 
|-----------------------------------------------------------: 
|-----------------------------------------------------------: 
|-----------------------------------------------------------: 
|-(2)-------------------------------------------------------: 
|-(2)-------------------------------------------------------: 
|-(0)-------------------------------------------------------: 
 
 
   |--3---|        |--3--|        |--3--|        |--3--| 
   S   S  S  S  S  S  S  S  S  S  S  S  S  S  S  S  S  S  S  S 
|-19p=17p15----15-19p17p15----15-19p17p15----15-19p17p15----15--: 
|-----------19-------------19-------------19-------------19-----: 
|---------------------------------------------------------------: 
|---------------------------------------------------------------: 
|---------------------------------------------------------------: 
|---------------------------------------------------------------: 
| 
|  TP 
| +W 
|---------------------------------------------------------------: 
|---------------------------------------------------------------: 
|---------------------------------------------------------------: 
|-(2)-----------------------------------------------------------: 
|-(2)-----------------------------------------------------------: 
|-(0)-----------------------------------------------------------: 
 
 
                |--3--|  |--3--|  |-3--|    |-3--| |-3-| 
   S   S  S  S  E  E  E  E  E  E  E  E E    E  E E E E E E E E E 
|-19p=17p15----15-14-12-14-12-10-12-10-8-:-10--8-7-8-7---7-------: 
|-----------19---------------------------:-------------8---8-7s5-: 
|----------------------------------------:-----------------------: 
|----------------------------------------:-----------------------: 
|----------------------------------------:-----------------------: 
|----------------------------------------:-----------------------: 
| 
|  TP                                       TP 
| +W                                       +W 
|----------------------------------------:-----------------------: 
|----------------------------------------:-----------------------: 
|----------------------------------------:-----------------------: 
|-(2)------------------------------------:-(2)-------------------: 
|-(2)------------------------------------:-(2)-------------------: 
|-(0)------------------------------------:-(0)-------------------: 
 
 
                           |----6-----| |----6----| |-3-| 
   E  E E E E E S S S S    S  S S S S S S S S S S S S S S E   +S  S E 
|-----------------------:---------------------------------------------: 
|--7--5s3-5-3-0-3h5p3p0-:--5p=3p0-5p3p0-5p3p0-5p3p0-5p3p0-------------: 
|-----------------------:---------------------------------2b4r(2)-0---: 
|-----------------------:-------------------------------------------2-: 
|-----------------------:---------------------------------------------: 
|-----------------------:---------------------------------------------: 
| 
|  TP                      TP 
| +W                      +W 
|-----------------------:---------------------------------------------: 
|-----------------------:---------------------------------------------: 
|-----------------------:---------------------------------------------: 
|-(2)-------------------:-(2)-----------------------------------------: 
|-(2)-------------------:-(2)-----------------------------------------: 
|-(0)-------------------:-(0)-----------------------------------------: 
 
 
                                           PM---|      PM--| 
                                           |-3--|      |-3-| 
   W           H     H          H     Q    E  E E   Q  E E E H 
|------------:----------------:-------------------:---------------: 
|------------:----------------:-------------------:---------------: 
|------------:----------------:-------------------:---------------: 
|------------:-------2--------:-2-----2-----------:-2--------2----: 
|------------:-------2--------:-2-----2-----------:-2--------2----: 
|--0---------:-0-----0--------:-0-----0----1--1-1-:-0--1-1-1-0----: 
| 
|                 ~       ~~~~     ~       ~~~~ 
| +W           Q  Q  Q    Q     Q  Q  Q    Q        W 
|------------:----------------:-------------------:---------------: 
|------------:----------------:-------------------:---------------: 
|------------:----------------:-------------------:---------------: 
|-(2)--------:-2-----2--{10}--:-2-----2--{10}-----:-2-------------: 
|-(2)--------:-2--3--2--------:-2--3--2-----------:-2-------------: 
|-(0)--------:-0-----0--------:-0-----0-----------:-0-------------: 
 
 
  +W           +H.      E E   +E  E  Q   Q  Q     Q   Q  H 
|------------:--------------:------------------:--------------*| 
|------------:--------------:------------------:--------------*| 
|------------:--------------:------------------:--------------*| 
|-(2)--------:-(2)--------2-:-(2)----2---2--2--:--2-----------*| 
|-(2)--------:-(2)--------2-:-(2)----2---2--2--:--2-----------*| 
|-(0)--------:-(0)--------0-:-(0)-0--0---0--0--:--0-----------*| 
| 
| +W           +H.      E E   +E  E  Q   Q  Q     Q   Q  H 
|------------:--------------:------------------:--------------*| 
|------------:--------------:------------------:--------------*| 
|------------:--------------:------------------:--------------*| 
|-(2)--------:-(2)----------:-------17--17S=9S=:=17\----------*| 
|-(2)--------:-(2)----------:------------------:--------------*| 
|-(0)--------:-(0)--------0-:-(0)-0-15--15S=7S=:=15\----------*| 

  

top cifras metallica
top cifras thrash metal
ver mais cifras desse artista

letras do(a) Metallica

Top cifras » Top artistas »
Anuncie no Cifras Termos de Uso Política de Privacidade Material de DivulgaçãoFale Conosco
Petaxxon Comunicação Online
Cifras.com.br - Melhor e mais completo site de cifras e tablaturas do Brasil
Mais de 1 milhão de cifras cadastradas desde 2003
As informações contidas no Cifras.com.br são colaborações de seus usuários e podem conter erros, sendo assim, não se responsabiliza sobre nenhuma destas.
R7 Música
close
 
redimensionar