» Cifras.com.br » Letras de músicas » Notícias » TV Cifras » Guitar Pro » Gospel
Michael Jackson

BEAT IT

Michael Jackson Escute esta e outras músicas enquanto navega no Cifras

Ano: 1982 - Album: Thriller

Autor:

Tom

Formatação

colunas A+ A- cores

Nível

Expert

Nível: Expert

Transcrição

enviada por drummer_cometh


  INTRO: (2x) 
 
e|-------------------------------|----------------------------|| 
B|-------------------------------|----------------------------|| 
G|-------------------------------|----------------------------|| 
D|-------------------------------|----------------------------|| 
A|---------7--10--7--9--7--------|---------7--10--7--9--7-----|| 
E|--5/7--9-----------------10-10-|--5/7--9-----------------10-|| 
 
GUITARRA 2 RIFF 
 
e|------------------------------------------------------------------------|| 
B|------------------------------------------------------------------------|| 
G|--12x-12x-12--10--12--10~--12x-12x-12--10--12--10~~---------------------|| 
D|------------------------------------------------------------------------|| 
A|------------------------------------------------------------------------|| 
E|------------------------------------------------------------------------|| 
 
 
Tom :Em 
Intro:  
 
e|-----|-----------------|-----------------|-----------------|-------------|| 
B|-----|-----------------|-----------------|-----------------|-------------|| 
G|-----|-----------------|-----------------|-----------------|-------------|| 
D|-----|-------5-2-----4-|---2-------------|-------5-2-----4-|---2---------|| 
A|-----|-----2-----------|-----5---5-------|-----2-----------|-----5-------|| 
E|--0--|---3-------------|---------------0-|---3-------------|-------------|| 
 
                                                                
    Em                               D 
1.    They told him don't you ever come around here,  
           Em                               D 
    don't wanna see your face, you better disappear. 
         C                              D 
    The fire's in their eyes and their words are really clear, 
        Em             D 
    so beat it, just beat it. 
    Em                             D 
2.    You better run, you better do what you can, 
           Em                              D 
    don't wanna see no blood, don't be a macho man. 
         C                      D 
    You wanna be tough, better do what you can, 
        Em                D 
    so beat it, but you wanna be bad. 
          Em                 D 
    Just beat it, beat it, beat it, beat it, 
     Em                    D 
    no one wants to be defeated. 
      C                      D 
    Showin' how funky and strong is your fight, 
    C                   D 
    it doesn't matter who's wrong or right, 
          Em                      D 
    just beat it, beat it, just beat it, beat it 
          Em                      D 
    Just beat it, beat it, just beat it, beat it. 
 
    Em                                  D 
3.     They're out to get you, better leave while you can, 
           Em                         D 
    don't wanna be a boy, you wanna be a man. 
         C                        D 
    You wanna stay alive, better do what you can, 
        Em             D 
    So beat it, just beat it. 
     Em                                D 
4.     You have to show them that you're really not scared, 
             Em                                     D 
    you're playin' with your life, this ain't no truth or dare 
             C                                          D 
    They'll kick you, then they beat you, then they'll tell you it's fair. 
          Em                D 
    Just beat it, but you wanna be bad. 
 
      Em                 D 
Just beat it, beat it, beat it, beat it, 
 Em                    D 
no one wants to be defeated. 
  C                      D 
Showin' how funky and strong is your fight, 
 C                  D 
it doesn't matter who's wrong or right. 
 
 
_______________________________________________________________________ 
Contribuição: Renan Garcia 
  

top cifras michael jackson
top cifras pop music
ver mais cifras desse artista var letras desse artista
Top cifras » Top artistas »
Anuncie no Cifras Termos de Uso Política de Privacidade Material de DivulgaçãoFale Conosco
Petaxxon Comunicação Online
Cifras.com.br - Melhor e mais completo site de cifras e tablaturas do Brasil
Mais de 1 milhão de cifras cadastradas desde 2003
As informações contidas no Cifras.com.br são colaborações de seus usuários e podem conter erros, sendo assim, não se responsabiliza sobre nenhuma destas.
R7 Música
close
 
redimensionar