Cifras e Tablaturas
Músicas Infantis

Músicas Infantis

Atirei o pau no gato (versão super completa) Tablatura

Cifras Cancelar Versão de Impressão
cifras

Músicas Infantis - Atirei o pau no gato (versão super completa)

fixar na tela  
Exibindo: vídeo-aula ver clipes redimensionar

Tom:

  E----------------------------------------------------- 
B--1---------1--1-1-3-1------1------------3-3-3-5-3-1- 
G---3-2-0-2-3----------3--3-3--3-2-2-2---------------- 
D--------------------------------------3-3------------ 
A----------------------------------------------------- 
E----------------------------------------------------- 
 
 
E----------------------------------------------------- 
B-1-1------1-----1------------------------------------ 
G----3-3-2--3-3-2-3-2-0------------------------------- 
D----------------------3------------------------------ 
A----------------------------------------------------- 
E----------------------------------------------------- 
 
 
 
E aew galera que curti uma musica infantil meu nome  
e Pedro Henrique Freitas da Silva se alguem tiver uma  
musica desse tipo pra zua ou musica mesmo me manda  
pedroramone666@hotmail.com 
 
Faloooooo!!!!!  
adicionada por:Pedro Henrique Freitas da Silva
  

top 5 | músicas infantis
top infantis
Outras músicas do artista letras do(a) Músicas Infantis
Top cifras »Top artistas »
Petaxxon Comunicação Online
Cifras.com.br - Melhor e mais completo site de cifras e tablaturas do Brasil
Mais de 1 milhão de acordes de músicas cadastradas desde 2003
As informações contidas no nosso site são colaborações de seus usuários e podem conter erros, sendo assim, não nos responsabilizamos sobre nenhuma destas.
close
menos
mais
close
Cor dos acordes:

Cor da letra:

 

save
close
close
 
redimensionar