» Cifras.com.br » Letras de músicas » Notícias » TV Cifras » Guitar Pro » Gospel

Início > Infantis > Músicas Infantis >

Tablatura Ia ia oh!


ouvir música

enviada por:
ochatodanet

sem correções
Cifras Cancelar Versão de Impressão
cifras

Músicas Infantis - Ia ia oh!

Tom:

 
 
   
e|------------------------------------------- 
B|------------------------------------------- 
G|-----9-9-9----------------13-13-11-11-9---- 
D|--9--9-9-9--9--11-11--9---13-13-11-11-9---- 
A|--9--7-7-7--9--11-11--9---11-11-9--9--7---- 
E|--7---------7--9--9---7--------------------x2 
 
na na na... ia ia oh! 
 
 
e|------------------------------------------- 
B|------------------------------------------- 
G|-----9-9-9--------------------------------- 
D|--9--9-9-9--9--11-------------------------- 
A|--9--7-7-7--9--11-------------------------- 
E|--7---------7--9--------------------------- 
 
era au au au pra cá... 
 
 
e|------------------------------------------- 
B|------------------------------------------- 
G|-----9-9-9--------------------------------- 
D|--9--9-9-9--9--11-------------------------- 
A|--9--7-7-7--9--11-------------------------- 
E|--7---------7--9--------------------------- 
 
era au au au pra lá... 
 
 
e|------------------------------------------- 
B|------------------------------------------- 
G|-----9-9-9-----------------13-13-11-11-9--- 
D|--9--9-9-9--9--11-11--9-9--13-13-11-11-9--- 
A|--9--7-7-7--9--11-11--9-9--11-11-9--9--7--- 
E|--7---------7--9--9---7-7------------------ 
 
na na na... pra todo lado ia ia oh! 
 

  

top 5 músicas infantis
top cifras infantis
Outras músicas do artista letras do(a) Músicas Infantis
Top cifras » Top artistas »
Anuncie no Cifras Termos de Uso Política de Privacidade Material de DivulgaçãoFale Conosco
Petaxxon Comunicação Online
Cifras.com.br - Melhor e mais completo site de cifras e tablaturas do Brasil
Mais de 1 milhão de cifras cadastradas desde 2003
As informações contidas no Cifras.com.br são colaborações de seus usuários e podem conter erros, sendo assim, não se responsabiliza sobre nenhuma destas.
R7 Música
close
menos
mais
close
Cor dos acordes:

Cor da letra:

 

save
close
close
 
redimensionar