» Cifras.com.br » Letras de músicas » Notícias » TV Cifras » Guitar Pro » Gospel
Logo Cifras.com.br

Início » Infantis » Músicas Infantis »

O sapo não lava o pé

Músicas Infantis

Músicas Infantis
O sapo não lava o pé

Escute esta músicas

Tom

Formatação

colunas A+ A- cores

Nível

Iniciante

Nível: Iniciante

Transcrição

enviada por ochatodanet


  -----------------------------------------  
-----------------------------------------  
0-4-4-0-2-0------------------------------  
------------2----------------------------  
-----------------------------------------  
-----------------------------------------  
  
o sapo não lava o pé  
  
-----------------------------------------  
-----------------------------------------  
0-4-4-0-2-0------------------------------  
------------3----------------------------  
-----------------------------------------  
-----------------------------------------  
  
não lava porque não quer  
  
-----------------------------------------  
-----------------------------------------  
0-0-4-4-0-2-0-4-4------------------------  
-----------------------------------------  
-----------------------------------------  
-----------------------------------------  
  
ele mora lá na lagoa  
  
-----------------------------------------  
-----------------------------------------  
0-2-0-4-0-2-4-5--------------------------  
-----------------------------------------  
-----------------------------------------  
-----------------------------------------  
  
não lava o pé porque não quer  
  
  
Obs: O violão ou guitarra deve estar bem afinado pois senão o som fica diferente  


  

top cifras músicas infantis
top cifras infantis
ver mais cifras desse artista

letras do(a) Músicas Infantis

Top cifras » Top artistas »
Anuncie no Cifras Termos de Uso Política de Privacidade Material de DivulgaçãoFale Conosco
Petaxxon Comunicação Online
Cifras.com.br - Melhor e mais completo site de cifras e tablaturas do Brasil
Mais de 1 milhão de cifras cadastradas desde 2003
As informações contidas no Cifras.com.br são colaborações de seus usuários e podem conter erros, sendo assim, não se responsabiliza sobre nenhuma destas.
R7 Música
close
 
redimensionar