Logo Cifras
Músicas Infantis

Músicas Infantis

Parabéns pra você (ver. 2) Tablatura

Cifras Cancelar Versão de Impressão
cifras

Músicas Infantis - Parabéns pra você (ver. 2)

fixar na tela  
Exibindo: vídeo-aula ver clipes redimensionar

Tom:

  -0-0-2---0-5-3------------------- 
--------------------------------- 
---------------------------------   FREEDOM FACES 
--------------------------------- 
--------------------------------- 
--------------------------------- 
parabéns pra você... 
 
-0-0-4---0-7-6-5----------------- 
--------------------------------- 
---------------------------------   FREEDOM FACES 
--------------------------------- 
--------------------------------- 
--------------------------------- 
nesta data querida... 
 
-0-0-12---9-7-6-5---------------- 
--------------------------------- 
---------------------------------   FREEDOM FACES 
--------------------------------- 
--------------------------------- 
--------------------------------- 
muitas feeeeelicidades... 
 
-10-10-9---5-7-6-5--------------- 
--------------------------------- 
---------------------------------   FREEDOM FACES 
--------------------------------- 
--------------------------------- 
--------------------------------- 
muitos anos de vida... 
 
essa é a versão mais evidente de parabéns... 
 

  

top 5 | músicas infantis
top infantis
Outras músicas do artista letras do(a) Músicas Infantis
Top cifras »Top artistas »
Petaxxon Comunicação Online
Cifras.com.br - Melhor e mais completo site de cifras e tablaturas do Brasil
Mais de 1 milhão de acordes de músicas cadastradas desde 2003
As informações contidas no nosso site são colaborações de seus usuários e podem conter erros, sendo assim, não nos responsabilizamos sobre nenhuma destas.
close
menos
mais
close
Cor dos acordes:

Cor da letra:

 

save
close
close
 
redimensionar