Logo Cifras
Músicas Infantis

Músicas Infantis

Pica-Pau Tablatura

Cifras Cancelar Versão de Impressão
cifras

Músicas Infantis - Pica-Pau

fixar na tela  
Exibindo: vídeo-aula ver clipes redimensionar

Tom:

  e|-------12-15-12-------12-15-12-15-12---15-12-13-15-13-12----12-15------| 
B|----13-------------13------------------------------------15------------| 
G|-12-------------12-----------------------------------------------------| 
D|-----------------------------------------------------------------------| 
A|-----------------------------------------------------------------------| 
E|-----------------------------------------------------------------------| 
 
 
e|-------12-15-12-------12-15-12-15-12---15-12-13-15-13-12----12---------| 
B|----13-------------13------------------------------------15----13------| 
G|-12-------------12-----------------------------------------------------| 
D|-----------------------------------------------------------------------| 
A|-----------------------------------------------------------------------| 
E|-----------------------------------------------------------------------| 
 
e|-15-15-17-15-17-13--13-13-16-13-16-13-13-15-15-15-15-13-12-------------| 
B|-----------------------------------------------------------13/15-------| 
G|-----------------------------------------------------------------------| 
D|-----------------------------------------------------------------------| 
A|-----------------------------------------------------------------------| 
E|-----------------------------------------------------------------------| 
 
e|-------12-15-12-------12-15-12-15-12---15-12-13-15-13-12----12------20-| 
B|----13-------------13------------------------------------15----13------| 
G|-12-------------12-----------------------------------------------------| 
D|-----------------------------------------------------------------------| 
A|-----------------------------------------------------------------------| 
E|-----------------------------------------------------------------------| 
 
 

  

top 5 | músicas infantis
top infantis
Outras músicas do artista letras do(a) Músicas Infantis
Top cifras »Top artistas »
Petaxxon Comunicação Online
Cifras.com.br - Melhor e mais completo site de cifras e tablaturas do Brasil
Mais de 1 milhão de acordes de músicas cadastradas desde 2003
As informações contidas no nosso site são colaborações de seus usuários e podem conter erros, sendo assim, não nos responsabilizamos sobre nenhuma destas.
close
menos
mais
close
Cor dos acordes:

Cor da letra:

 

save
close
close
 
redimensionar