» Cifras.com.br » Letras de músicas » Notícias » TV Cifras » Guitar Pro » Gospel
My Chemical Romance

Early sunsets over monroeville

My Chemical Romance Escute esta e outras músicas enquanto navega no Cifras

Ano: 2002 - Album: I Brought You My Bullets, You Brought Me Your Love

Autor:

Tom

Formatação

colunas A+ A- cores

Instrumento

cifras tablaturaver outros instrumentos

Nível

Iniciante

Nível: Iniciante

Transcrição

enviada por europeu


   D    Bm7    F#   Am7    A     G 
e|--2-----2-----2-----0-----0-----3--| 
B|--3-----3-----2-----0-----2-----0--| 
G|--2-----4-----2-----2-----2-----0--| 
D|--0-----4-----4-----2-----2-----0--| 
A|--x-----2-----4-----0-----0-----2--| 
E|--x-----x-----2-----x-----x-----3--| 
 
Verse 1: 
 
  Guitar 2: 
 
    
e|----0--0--02-0--| 
B|--3--3--3-------| 
G|----------------| 
D|----------------| 
A|----------------| 
E|----------------| 
after playing that intro twice, play this. 
 
  Guitar 2: 
e|--235---5-235---5-2222222222222222-2222222222222222------------------020| 
B|-----3-3-----3-3------------------------------------233-33233-33233-3---| 
G|------------------------------------------------------------------------| 
D|------------------------------------------------------------------------| 
A|------------------------------------------------------------------------| 
E|------------------------------------------------------------------------| 
 
  (Guitar 2 continued) 
e|----5---5---5--57-5-15-13| 
B|--23--23--23-23----------| 
G|-------------------------| 
D|-------------------------| 
A|-------------------------| 
E|-------------------------| 
 
Verse 2: 
 
  Guitar 2: 
e|---5-235---5------------------020------------------020---5---5---5--5--5-| 
B|--3-----3-3--233-33233-33233-3----233-33233-33233-3----23--23--23-23-23-3| 
G|-------------------------------------------------------------------------| 
D|-------------------------------------------------------------------------| 
A|-------------------------------------------------------------------------| 
E|-------------------------------------------------------------------------| 
 
  (Guitar 2 continued) 
e|----5---5---5--5753232-----| 
B|--23--23--23-23-------3h5--| 
G|---------------------------| 
D|---------------------------| 
A|---------------------------| 
E|---------------------------| 
 
  Bridge/Ending 
e|-----0---02320--| 
B|--023-323-------| 
G|----------------| 
D|----------------| 
A|----------------| 
E|----------------| 
 
  Bridge/Ending Part 2 
 
when he first says "there's no room in this hell" then you switch to this. 
 
e|-------------------------------------------------| 
B|--233233233233233233233233233233233233233233233--| 
G|-------------------------------------------------| 
D|-------------------------------------------------| 
A|-------------------------------------------------| 
E|-------------------------------------------------| 
 
do that once and then this untill he stops saying "there's no room in the next" 
for the last time. 
 
e|------------------------------| 
B|--3-320-023-320-023-350-0523--| 
G|------------------------------| 
D|------------------------------| 
A|------------------------------| 
E|------------------------------| 
 
then finish with this once. 
e|-----0---02320------| 
B|--023-323-----02/3--| 
G|--------------------| 
D|--------------------| 
A|--------------------| 
E|--------------------| 
Lyrics/Chords 
 
Verse 1: 
 
D                Bm7   F#       Am7 A D               Bm7       F#     Am7 A 
Late  dawns  and  early  sunsets,     just  like  my  favorite  scenes. 
 
D              Bm7         F#         Am7 A 
Then  holding  hands  and  life  was  perfect.   
 
D               Bm7      F#     Am7 A 
just  like  up  on  the  screen. 
 
D               Bm7           F#      Am7 A 
And  the  whole  time  while  always  giving. 
 
D              Bm7     F#         Am7 A 
Counting  your  face  among  the  living. 
 
Verse 2: 
 
D             Bm7  F#     Am7 A D            Bm7      F#        Am7 A     
Up  and  down  escalaters,      pennies  and  colder  fountains.  
 
D   Bm7         F#                  Am7 A 
Elavaters  and  half  priced  sales. 
 
D               Bm7          F#        Am7 A 
Trapped  in  by  all  these  mountains. 
 
D       Bm7         F#      Am7   A 
Running  away  and  hiding  with  you. 
 
D        Bm7               F#       Am7 A 
I  never  thought  they'd  get  me  here. 
 
D                 Bm7             F#        Am7  A  
Not  knowing  you  changed  from  just  one  bite. 
 
D               Bm7        F#       Am7    A               Bm7 
I  fought  them  all  off  just  to  hold  you  close  and  tight. 
 
                   G                           A 
But  does  anyone  notice,  But  does  anyone  care. 
 
                      F#                              g 
And  if  i  had  the  guts,  to  put  this  to  your  head. 
 
                     Bm7                          G 
But  would  anything  matter,  if  your  already  dead. 
 
                    A                                         F# 
And  should  i  be  shocked  now,  by  the  last  thing  you  said. 
 
                       G                                 Bm7 
Before  i  pull  this  trigger,  your  eyes  vacant  and  staind. 
 
                   G                           A 
But  does  anyone  notice,  but  does  anyone  care. 
 
                      F#                   G            
And  if  i  had  the  guts,  to  put  this  through  your  head. 
 
                     Bm7                  G 
And  would  anything  matter,  if  your  already  dead. 
 
                       A                                    F# 
And  now  should  i be shocked,  by  the  last  thing  you  said. 
 
                       G                                 Bm7 
Before  i  pull  this  trigger,  your  eyes  vacant  and  staind. 
 
                      G                                     F# 
And  in  saying  you  loved  me,  made  things  harder  at  best. 
 
                             G                        Bm7 
And  these  words  changing  nothing,  as  your  body  remains. 
 
                            G                                        A 
And  there's  no  room  in  this  hell,  there's  no  room  in  the  next. 
 
                    F#                                 G 
And  our  memories  defeat  us,  and  i'll  end  this  direst. 
 
                  Bm7                          G 
But  does  anyone  notice,  but  does  anyone  care. 
 
                       A                   F# 
When  if  i  had  the  guts,  to  put  this  to  your  head. 
 
                     G                   Bm7 
But  does  anything  matter,  if  your  already  dead. 
 
                    G                                          A 
And  should  i  be  shocked  now,  by  the  last  thing  your  said. 
 
                       F#                                 G 
Before  i  pull  this  trigger,  your  eyes  vacant  and  staind. 
 
                     Bm7                                    G 
And  in  saying  you  loved  me,  made  things  harder  at  best. 
 
                           A                           F# 
And  these  words  changing  nothing,  as  your  body  remains. 
 
                            G                                       Bm7 
And  there's  no  room  in  this  hell,  there's  no  room  in  the  next. 
 
                   G 
But  does  anyone  notice,  there's  corps  in  this  bed. 
 
 
                

  

top cifras my chemical romance
top cifras punk rock
ver mais cifras desse artista var letras desse artista
Top cifras » Top artistas »
Anuncie no Cifras Termos de Uso Política de Privacidade Material de DivulgaçãoFale Conosco
Petaxxon Comunicação Online
Cifras.com.br - Melhor e mais completo site de cifras e tablaturas do Brasil
Mais de 1 milhão de cifras cadastradas desde 2003
As informações contidas no Cifras.com.br são colaborações de seus usuários e podem conter erros, sendo assim, não se responsabiliza sobre nenhuma destas.
R7 Música
close
 
redimensionar