» Cifras.com.br » Letras de músicas » Notícias » TV Cifras » Guitar Pro » Gospel

Início » Gospel » Oficina G3 » »

Espelhos Mágicos - Versão Acústica

Oficina G3

Espelhos Mágicos - Versão Acústica

Oficina G3 Escute esta e outras músicas enquanto navega no Cifras

Autor:

Formatação

colunas A+ A- cores

Nível

Avançado

Nível: Avançado

Transcrição

enviada por Acelot


  

intro 


e|--------------------------------------------------------------| 
B|-----2-3---2-------2-------0----------------------------------| 
G|---4-----------4-------2-------2---------------2-0------------| 
D|-4-------4---4---4---2---2---2---4---4---4---4-------0---0---0| 
A|-------2-----------0---------------4---4---4-------2---2---2--| 
E|---------------------------------2---------------3------------| 





e|---0-------2---3---0-------------------------------------------| 
B|---0---0-------------------3-2-----3-2-----3-2-----3-2---------| 
G|---0-0---0---0---0-----2-------2-------2-------2-------2-------| 
D|---------------------2---2-------4-------4-------4-------4-----| 
A|-------------------0-------2-----------------------------------| 
E|---0-----------------------------------------------------------| 






e|--10---9---7---12--------10----9-5---------3-3-3---0----------| 
B|--7-----------------10------10---2---2---2---3---3-0---0------| 
G|--7--7---7---7----9----9---------2-2---2-----4-----0-0---0----| 
D|--------------------------------------------------------------| 
A|---------------0----------------------------------------------| 
E|--7------------------------------2-----------3-----0----------| 





e|--2---3---0---------------------------------------------------| 
B|------------------2---3-2-----3-2-----3-2-----3-2-------------| 
G|----0---0-----2-----------2-------2-------3-------3-----------| 
D|------------2---2---2-------4-------4-------4-------4---------| 
A|----------0-----------2---------------------------------------| 
E|--------------------------------------------------------------| 




solo 



e|------9-12-10p9----9-------9-----------------9-10-9h10p9-----| 
B|---10-----------12---10-12---10-12--------12--------------12-| 
G|-9---------------------------------11-12---------------------| 
D|-------------------------------------------------------------| 
A|-------------------------------------------------------------| 
E|-------------------------------------------------------------| 

e|--------------------------14p12--14/16-14--------------------| 
B|-10-10--------------14p12------------------------------------| 
G|--------------12p11-----------------------19r17--17-15-17-15-| 
D|--------12p11------------------------------------------------| 
A|-------------------------------------------------------------| 
E|-------------------------------------------------------------| 



e|---------------14p10-12p10----10-------10------------------9-| 
B|-17b19--17b19------------------------------------------------| 
G|---------------------------14----12-14----14-12-11-9-11-12---| 
D|-------------------------------------------------------------| 
A|-------------------------------------------------------------| 
E|-------------------------------------------------------------| 



e|-10-12-10-9-------9------------------------------------------| 
B|--------------------------------7----------------------------| 
G|------------11-12---12-11-9-7-9---9-7-6--------11\9----9\7---| 
D|-----------------------------------------11/12------11-------| 
A|-------------------------------------------------------------| 
E|-------------------------------------------------------------| 



e|-------------------------------------------------------------| 
B|------------------------2-3-2h3p2-----2\3--3/5--6--2--3--2--0| 
G|--7\6---6\4---4\2---2-4-----------4-2-3\4--4/6--5--2--4--2--0| 
D|9-----7-----5-----4------------------------------------------| 
A|-------------------------------------------------------------| 
E|-------------------------------------------------------------| 



e|-----------------------------------------5-7--7/9---5--5--5--| 
B|------0--2--3--2--0--0-------------5-7-8------8/10--7--5--5--| 
G|-2-2--0--2--4--2--0--0-------4-6-7---------------------------| 
D|-4-4-------------------4-5-7---------------------------------| 
A|-------------------------------------------------------------| 
E|-------------------------------------------------------------| 



e|-------9-9h10p9----9-10/14-15-14-12---------12----------------| 
B|----12----------12------------------15-14-12--15-14-12-9------| 
G|6/11-----------------------------------------------------11-12| 
D|--------------------------------------------------------------| 
A|--------------------------------------------------------------| 
E|--------------------------------------------------------------| 
  

top cifras oficina g3
top cifras gospel
ver mais cifras desse artista var letras desse artista
Top cifras » Top artistas »
Anuncie no Cifras Termos de Uso Política de Privacidade Material de DivulgaçãoFale Conosco
Petaxxon Comunicação Online
Cifras.com.br - Melhor e mais completo site de cifras e tablaturas do Brasil
Mais de 1 milhão de cifras cadastradas desde 2003
As informações contidas no Cifras.com.br são colaborações de seus usuários e podem conter erros, sendo assim, não se responsabiliza sobre nenhuma destas.
R7 Música
close
 
redimensionar