» Cifras.com.br » Letras de músicas » Notícias » TV Cifras » Guitar Pro » Gospel
Logo Cifras.com.br

Início » Jovem Guarda » Os Incríveis »

O milionário (ver. 2)

Os Incríveis

Os Incríveis
O milionário (ver. 2)

Escute esta músicas

Tom

Formatação

colunas A+ A- cores

Instrumento

cifras tablaturaver outros instrumentos

Nível

Iniciante

Nível: Iniciante

Transcrição

enviada por leosorialves


  1ªParte 
e|---------------3---3-----------5-5-7-5-5-7-5-5-7-5-7-5-3----- 
B|---------3-3/5---5---5/4/5-------------------------------5-3- 
G|-0-2-2h4----------------------------------------------------- 
D|------------------------------------------------------------- 
A|------------------------------------------------------------- 
E|------------------------------------------------------------- 
 
2ªParte 
e|---7-10----8--10--8-10-7-5--------15-14--14-12-14-14-12-14--15-14-12-10-7- 
B|-8-8-12----10-12-10-12-8-5---5/13--------15-13-15-15-13-15--17-15-13-12-8- 
G|-7------------------------------------------------------------------------ 
D|-------------------------------------------------------------------------- 
A|-------------------------------------------------------------------------- 
E|-------------------------------------------------------------------------- 
 
3ªParte 
   G#                                              G           
e|---------------------------------------------------------15-15h17-15---------- 
B|-8h98h98h98h98h98h98h98h98h98h98h98h9-8h9/11---9-8h9p8---------------15p17-15- 
G|------------------------------------------------------------------------------ 
D|------------------------------------------------------------------------------ 
A|------------------------------------------------------------------------------ 
E|------------------------------------------------------------------------------ 
   G#                                              G 
e|-------------------------------------------------------------- 
B|-8h98h98h98h98h98h98h98h98h98h98h98h9-8h9/11---9-8h9p8-------- 
G|----------------------------------------------------------9/7- 
D|-------------------------------------------------------------- 
A|-------------------------------------------------------------- 
E|-------------------------------------------------------------- 
 
Final 
   G                    Am       D                       B    E  
e|---------------3---3-----------5-5-7-5-5-7-5-5-7-5-7-5-7--5-4 
B|---------3-3/5---5---5/4/5----------------------------------- 
G|-0-2-2h4----------------------------------------------------- 
D|------------------------------------------------------------- 
A|------------------------------------------------------------- 
E|------------------------------------------------------------- 
 
   Am                       D                      G        E           
e|-3/5--5h7-5h7-5h7-5-3-0---3/5--5h7-5h7-5h7-5-3-0-3--3-2-1-0-- 
B|------------------------------------------------------------- 
G|------------------------------------------------------------- 
D|-------------------------------------------------------------2X 
A|------------------------------------------------------------- 
E|------------------------------------------------------------- 
   Am                       D                      G F# F F# G        
e|-3/5--5h7-5h7-5h7-5-3-0---3/5--5h7-5h7-5h7-5-3-0-3-2-1-2-3/2/3-- 
B|-------------------------------------------------3-2-1-2-3/2/3-- 
G|-------------------------------------------------4-3-2-3-4/3/4-- 
D|---------------------------------------------------------------- 
A|---------------------------------------------------------------- 
E|---------------------------------------------------------------- 
 
Adordes 
1ªParte- G   Am   D   G D7 
2ªParte- G   Am   D   G  
 
 
Ordem da Música: 
1ªParte 2x 
2ªParte 2x 
3ªParte  
Repete tudo abafado 
1ªParte 
Final 

  

top cifras os incríveis
top cifras jovem guarda
ver mais cifras desse artista

letras do(a) Os Incríveis

Top cifras » Top artistas »
Anuncie no Cifras Termos de Uso Política de Privacidade Material de DivulgaçãoFale Conosco
Petaxxon Comunicação Online
Cifras.com.br - Melhor e mais completo site de cifras e tablaturas do Brasil
Mais de 1 milhão de cifras cadastradas desde 2003
As informações contidas no Cifras.com.br são colaborações de seus usuários e podem conter erros, sendo assim, não se responsabiliza sobre nenhuma destas.
R7 Música
close
 
redimensionar