» Cifras.com.br » Letras de músicas » Notícias » TV Cifras » Guitar Pro » Gospel

Início » Gospel » Pamela » »

Um verso de amor

Pamela

Um verso de amor

Pamela Escute esta e outras músicas enquanto navega no Cifras

Autor:

Formatação

colunas A+ A- cores

Nível

Avançado

Nível: Avançado

Transcrição

enviada por Jonatas_Black


  Solo: Um Verso de Amor 

Base: Bb : F/A : Gm : F : Eb : D4  D : 



E:------------------------------------------------------------------------------------------ 
B:------------------------------------------------------------------------------------------ 
G:--3------------3-5/7-5-----------5-8/10--8--7--5--3--------------------------------------- 
D:-----(P.M.)3-5---------(P.M.)3-5---------------------------------------------------------- 
A:------------------------------------------------------------------------------------------ 
E:------------------------------------------------------------------------------------------ 

E:--15~~~~--15-17-18-17-15-14--------------------------------------------------------------- 
B:------------------------------------------------------------------------------------------ 
G:------------------------------------------------------------------------------------------ 
D:------------------------------------------------------------------------------------------ 
A:------------------------------------------------------------------------------------------ 
E:------------------------------------------------------------------------------------------ 


E:--17-15-14--15-14-12--15-14-12------------------------------------------------------------ 
B:-------------------------------15-13-12-15-13-12------------------------------------------ 
G:-------------------------------------------------14-12-11--------------------------------- 
D:----------------------------------------------------------14-12-10------------------------ 
A:-------------------------------------------------------------------14-12-10~~~~----------- 
E:------------------------------------------------------------------------------------------ 
  

Top cifras » Top artistas »
Anuncie no Cifras Termos de Uso Política de Privacidade Material de DivulgaçãoFale Conosco
Petaxxon Comunicação Online
Cifras.com.br - Melhor e mais completo site de cifras e tablaturas do Brasil
Mais de 1 milhão de cifras cadastradas desde 2003
As informações contidas no Cifras.com.br são colaborações de seus usuários e podem conter erros, sendo assim, não se responsabiliza sobre nenhuma destas.
R7 Música
close
 
redimensionar