» Cifras.com.br » Letras de músicas » Notícias » TV Cifras » Guitar Pro » Gospel

Início » MPB » Patricia e Adriana » »

Mercedita

Patricia e Adriana

Mercedita

Patricia e Adriana Escute esta e outras músicas enquanto navega no Cifras

Autor:

Formatação

colunas A+ A- cores

Nível

Iniciante

Nível: Iniciante

Transcrição

enviada por Saulo85


  INTRO e REFRAO EM Am  

e|-----------13h12h10-13-12-|-------------13h12h10-13-12-------|  
B|--10-13-------------------|--10-13-------------------------------|  
G|------------------------- |---------------------------------------|  
D|--------------------------|--------------------------------------|  
A|--------------------------|--------------------------------------|  
E|--------------------------|--------------------------------------|  


|-----------13h12h10-13-12-|-----------13h12h10-13-12---------|  
|--9-12------------------------|--9-12-------------------------------|  
|-------------------------------|------------------------------------- -|  
|-------------------------------|------------------------------------- -|  
|-------------------------------|------------------------------------- -|  
|-------------------------------|------------------------------------- -|  


e|-----------13h12h10-13-12-|-------------13h12h10-13-12-0-0---|  
B|--10-13----------------------|--10-13------------------------------- |  
G|------------------------------ |---------------------------------------|  
D|-------------------------------|------------------------------------ --|  
A|-------------------------------|------------------------------------ --|  
E|-------------------------------|------------------------------------ --|  


|-10-0-0-8-0-0-7-0-0-5----------|------------------------------------- -|  
|-------------------------------|------------------------------------- -|  
|-------------------------------|------------------------------------- -|  
|-------------------------------|------------------------------------- -|  
|-------------------------------|------------------------------------- -|  
|-------------------------------|------------------------------------- -|  



|-------------------------------|------------------------------------- -|  
|-------------------------------|------------------------------------- -|  
|-------------------------------|------------------------------------- -|  
|-------------------------------|------------------------------------- -|  
|--0-0-8---8-7----0-0-8---8-7---|------8---8-7---------8---8-7-------- -|  
|-------------------------------|--7-7--------------7-7--------------- -|  

O ritimo vc impoe  

|-------------------------------|------------------------------------- -|  
|-------------------------------|------------------------------------- -|  
|-------------------------------|------------------------------------- -|  
|-------------------------------|------------------------------------- -|  
|-0-0-8---8-7-----0-0-8----8-7~|-5~---3~----2~---0~------------------- -|  
|-------------------------------|------------------------------------- -|  
|-------------------------------|------------------------------------- -|  
|-------------------------------|------------------------------------- -|  
|-------------------------------|------------------------------------- -|  
|-------------------------------|------------------------------------- -|  
|--0-5-8-8~12---10-8-10-8-10-8-10-8-10~12---8-7-8-7-8-7-8-7-8~10-7---7 -|  
|-------------------------------|---------------------------------10-- -|  


|-------------------------------|-----0-3~5-3-1-3-1-3-1-3-1-3~5--1-0-1 -0|  
|-------------------------------|---2--------------------------------- -|  
|-------------------------------|-0----------------------------------- -|  
|-------------------------------|------------------------------------- -|  
|---7----7---7-8----------------|------------------------------------- -|  
|-10--10---10----10-8-----------|------------------------------------- -|  
|1-0-1-0-3-0---0---0---0---0-1--|------------------------------------- -|  
|------------3---3---3---3------|3-1---------------------------------- ----|  
|-------------------------------|------------------------------------- -|  
|-------------------------------|------------------------------------- -|  
|-------------------------------|------------------------------------- -|  
|-------------------------------|------------------------------------- -|  


 Refrão

|-------------------------------|------------------------------------- -|  
|-----6-5-3-6-5-------13-12--9--|-13-12------6-5-3-6-5-------13-12-9-1 3-12|  
|-2-5------------9-12-----------|--------1-4-----------8-11----------- ----|  
|-------------------------------|------------------------------------- -|  
|-------------------------------|------------------------------------- -|  
|-------------------------------|------------------------------------- -|  

|-------------------------------|12-0-0-10-0-0-8-0-0-7-0-0-5---------- -|  
|-----6-5-3-6-5-------13-12-9-13|------------------------------------- -|  
|-2-5------------9-12-----------|------------------------------------- -|  
|-------------------------------|------------------------------------- -|  
|-------------------------------|------------------------------------- -|  
|-------------------------------|------------------------------------- -|  

e|-----------13h12h10-13-12-|-------------13h12h10-13-12-------|  
B|--10-13-------------------|--10-13-------------------------------|  
G|------------------------- |---------------------------------------|  
D|--------------------------|--------------------------------------|  
A|--------------------------|--------------------------------------|  
E|--------------------------|--------------------------------------|  


|-----------13h12h10-13-12-|-----------13h12h10-13-12---------|  
|--9-12------------------------|--9-12-------------------------------|  
|-------------------------------|------------------------------------- -|  
|-------------------------------|------------------------------------- -|  
|-------------------------------|------------------------------------- -|  
|-------------------------------|------------------------------------- -|  


e|-----------13h12h10-13-12-|-------------13h12h10-13-12-0-0---|  
B|--10-13----------------------|--10-13------------------------------- |  
G|------------------------------ |---------------------------------------|  
D|-------------------------------|------------------------------------ --|  
A|-------------------------------|------------------------------------ --|  
E|-------------------------------|------------------------------------ --|  


|-10-0-0-8-0-0-7-0-0-5----------|------------------------------------- -|  
|-------------------------------|------------------------------------- -|  
|-------------------------------|------------------------------------- -|  
|-------------------------------|------------------------------------- -|  
|-------------------------------|------------------------------------- -|  
|-------------------------------|------------------------------------- -|  
|-------------------------------|------------------------------------- -|  
|-------------------------------|------------------------------------- -|  
|-------------------------------|------------------------------------- -|  
|-------------------------------|------------------------------------- -|  
|-------------------------------|------------------------------------- -|  
|-------------------------------|------------------------------------- -| 
  

top cifras patricia e adriana
top cifras mpb
ver mais cifras desse artista var letras desse artista
Top cifras » Top artistas »
Petaxxon Comunicação Online
Cifras.com.br - Melhor e mais completo site de cifras e tablaturas do Brasil
Mais de 1 milhão de cifras cadastradas desde 2003
As informações contidas no Cifras.com.br são colaborações de seus usuários e podem conter erros, sendo assim, não se responsabiliza sobre nenhuma destas.
R7 Música
close
 
redimensionar