» Letras de músicas » Notícias » Video Aulas » Guitar Pro » Gospel
Pink Floyd

Pink Floyd

Another Brick In The Wall solo

ouvir música
ouvir música
enviado por
enviada por:
nirvana_nick
cifra enviada
sem correções
Cifras Cancelar Versão de Impressão
cifras

Pink Floyd - Another Brick In The Wall solo

Tom:

  Pink Floyd : Another Brick In The Wall Part 2 Solo  
Standard Tuning (can be played on any tuning style) 
 
 
 
|--------------------12-----------------| 
|-15p12----12-----------15(17)-12-12-12-| 
|-------14----14(16)-----------12-12-12-| 
|---------------------------------------| 
|---------------------------------------| 
|---------------------------------------| 
 
|---------------------------------| 
|-14(16)-14(17)14-15p12-----------| 
|-----------------------14-14(16)-| 
|---------------------------------| 
|---------------------------------| 
|---------------------------------| 
 
|---------------------------------------------------------| 
|------------------12----12--12----12--12----12--14--12---| 
|-12p11-11------14----12---12---12---12---12---12--14--12-| 
|----12-12/14---14----14--------14--------14--------------| 
|---------------------------------------------------------| 
|---------------------------------------------------------| 
 
|-------15(17)-15-15----------------------------| 
|-----x--------------15(17)-(19)-(20)-(15)-(17)-| 
|---x-------------------------------------------| 
|-x---------------------------------------------| 
|-----------------------------------------------| 
|-----------------------------------------------| 
 
|---------12----------------------------------------------------------------------------| 
|-------12--15p12-----------------------------------------------------------------------| 
|-14(16)---------14-14(16)14p12-14p12---12----------------------------------------------| 
|-------------------------------------14---14--14p12---12-------------------------------| 
|----------------------------------------------------14--14/12p10-12p10-10--------------| 
|--------------------------------------------------------------------12-10-12---12-12/4-| 
 
|------------------------------------------| 
|------------------------------------------| 
|---------12p11-------------------------12-| 
|------12------14-14p12----8/12-14-14p12---| 
|-10/14------------------14----------------| 
|------------------------------------------| 
 
|-------------------------17(19)15------------15-17v(19)17-----| 
|-15(17)-15(17)-(19)-----x--------17--11/15-17--------------17-| 
|----------------------x---------------------------------------| 
|--------------------x-----------------------------------------| 
|--------------------------------------------------------------| 
|--------------------------------------------------------------| 
 
|-19-19--21(23)-21p19-21p19------------------| 
|---------------------------12-12-12/14\12---| 
|-----------------------------------------14-| 
|--------------------------------------------| 
|--------------------------------------------| 
|--------------------------------------------| 
 
|-----------------x-x--x--------------------------| 
|-9/13----12-10---x-x--13p10----x-x---------------| 
|-9/13----12-10---x-x--x--------x-x---------------| 
|------12---------x-x--------12-x-x---5-5p3---3---| 
|-------------------------------x-x---------5---5-| 
|-------------------------------------------------| 
 
|---------------| 
|----------x3---| 
|---------------| 
|-2~----0---5---| 
|-2~----0---5---| 
|-2~----0---5---| 
 
|--------| 
|----x1--| 
|--------| 
|-2~-----| 
|-2~-----| 
|-2~-----| 
 
 

  

top 5 | pink floyd
top rock clássico
Outras músicas do artista letras do(a) Pink Floyd
Top cifras » Top artistas »
Anuncie Termos de Uso Política de Privacidade Material de DivulgaçãoFale Conosco
Petaxxon Comunicação Online
Cifras.com.br - Melhor e mais completo site de cifras e tablaturas do Brasil
Mais de 1 milhão de acordes de músicas cadastradas desde 2003
As informações contidas no nosso site são colaborações de seus usuários e podem conter erros, sendo assim, não nos responsabilizamos sobre nenhuma destas.
R7 Música
close
menos
mais
close
Cor dos acordes:

Cor da letra:

 

save
close
close
 
redimensionar