» Cifras.com.br » Letras de músicas » Notícias » TV Cifras » Guitar Pro » Gospel

Início » Rock Clássico » Pink Floyd » »

Comfortably Numb (versão Pulse)

Pink Floyd

Comfortably Numb (versão Pulse)

Pink Floyd Escute esta e outras músicas enquanto navega no Cifras

Autor:

Tom

Formatação

colunas A+ A- cores

Instrumento

cifras tablaturaver outros instrumentos

Nível

Expert

Nível: Expert

Transcrição

enviada por Overkiller666


   
 
 
------------------------------------------------------------------------------ 
-----------------------------------------------------------------10-12--13b--- 
-----------------7^--9-9b--7-9b---9p7--9-9-9--9p7----7-----9/11--------------- 
--------------------------------------------------9--------------------------- 
---9\5v--\/v------------------------------------------------------------------ 
------------------------------------------------------------------------------ 
 
 
-----------10---------------------------7------------------------------------- 
--12-10-12----------------------------7---10-7--------------------7----------- 
-----------------7-9-9b-r----------9b----------9-7----------------7v---------- 
---------------------------9v----------------------9v---------7-9----9p7-9v--- 
----------------------------------------------------------7/9----------------- 
------------------------------------------------------------------------------ 
 
 
---7-9-9b--9p7------------------------7--------------------------------------- 
--7------------10-7-10b--10p7-------7---10-7---------------------------------- 
-7----------------------------9--9b----------9---9br-7------------------------ 
-------------------------------------------------------9-7---9---------------- 
-----------------------------------------------------------9---9-7------------ 
-------------------------------------------------------------------10-9-7v---- 
 
 
---------------7---7---------------------------------------------------------- 
---------------7-----10-7----------------------------------------------------- 
------7-7-7v---9b---------9--9br-7-------------------------------------------- 
-7^--------------------------------9-7---9----------------------------/7-7-7-- 
---------------------------------------9---9-7---------7/9-7---7-9------------ 
-----------------------------------------------10-9-7v-------9---------------- 
 
 
----------------7------------------------------------------------------------- 
--------------7---10-7-------------------------------------------------------- 
-----------9b----------9-7---------------------------------------------------- 
-7--7-9-7v----------------9-7---9--------------------------------------------- 
------------------------------9---9-7------------0-2br-p0-2v--2-4-4b---4b-4r-- 
--------------------------------------10-9-7v--------------------------------- 
                                                                        * 
 
-----------------------------------------------------------------------10----- 
--------------------------------------2-------5br-p3---------7-10--10b-------- 
------------------------------------2-----2-4--------4-4v--------------------- 
--------------------------------2/4-----4------------------------------------- 
-2-4b----4-2---2-5------------------------------------------------------------ 
-------------5-----5-3-2-0\v-------------------------------------------------- 
   *gradual bend          *trem dive 
 
------------------------------------------------------------------------------ 
-10b----10b-10b-10b---10br-10b----12b-10v----10br-10--10-7---7----10/12-12---- 
-----------------------------------------------------------9------------------ 
------------------------------------------------------------------------------ 
------------------------------------------------------------------------------ 
------------------------------------------------------------------------------ 
                                                                  |trem----- 
 
------------------------------------------------------------------------------ 
-10----------------7-------------------------------------------7b----7-7b----- 
----9/11-11-9v-------9--9br-7---9-7----9b-7h9p7---7^-9b--------7b----7-7b----- 
------------------------------9-----------------9-------9v--------9v------9--- 
------------------------------------------------------------------------------ 
------------------------------------------------------------------------------ 
 throughtout--| 
 
------------------------------------------|------------------|--------7---7--- 
--------7-7b--------7b---------7b---------|------------------|--------7---7--- 
--------7-7b--------7b---------7b---------|---------7^-------|-9p7----9b------ 
-7-9v-------9-7-9v-----9-7-9v-----9-7-9v--|-7-9p7------9p7---|-----9---------- 
------------------------------------------|-------9--------9-|---------------- 
------------------------------------------|------------------|---------------- 
                                                          x6 
 
---------7--7-----------7--7----------7--7-7--7----7-------------------------- 
-10-7----7--7--10-7-----7--7--10-7----7--7-7--7----7--10-7-------------------- 
------9--9b---------9---9b---------9--9b------9b---9b------9br-7-------------- 
-----------------------------------------------------------------9-9-9-9v----- 
------------------------------------------------------------------------------ 
------------------------------------------------------------------------------ 
 
 
------------------------------------------------------------------------------ 
------------------------------------------------------------------------------ 
-------14-16b-----14-16-16b-16b-16b---16p14--14v-16----9-7-9-9br-9-7---------- 
-14/16---------16----------------------------------------------------9-7-9---- 
------------------------------------------------------------------------------ 
------------------------------------------------------------------------------ 
 
 
----------------------------------------7------------------------------------- 
--------------------------------------7---10-----------15-17p15----17/19-19--- 
---------------7b---7b--9-7-9br-7--9b------------14/16----------16------------ 
---------------7b---7b-------------------------------------------------------- 
----------7/9-----9----------------------------------------------------------- 
-10b-7v----------------------------------------------------------------------- 
 
 
------------------------------------------------------------------------------ 
-19-19-19br-17-15b--15-14--14h15p14------------------------------------------- 
-------------------------------------16-14bv---/16-14--11-14-11-14v--/16-16--- 
------------------------------------------------------------------------------ 
------------------------------------------------------------------------------ 
------------------------------------------------------------------------------ 
 
 
------------------------------/19-19-19p17-19--19-21-21b--21b21r-21b-21-19---- 
------------------------------------------------------------------------------ 
-16--14-11--14-14/16-16-16---------------------------------------------------- 
------------------------------------------------------------------------------ 
------------------------------------------------------------------------------ 
------------------------------------------------------------------------------ 
 
 
-19p17h19-------17--------------------------------------------7--------------- 
------------17b-----17br-17-17-15---15-17-17br-p15--------------10-7---7------ 
---------------------------------------------------16v-----9b--------9-------- 
------------------------------------------------------------------------------ 
------------------------------------------------------------------------------ 
------------------------------------------------------------------------------ 
 
 
-|------------|----7-------------------------------10----12b12r-12-10-12-10--- 
-|----7--10-7-|------10-7----------------12-12-12v----12---------------------- 
-|-9b---------|-9b--------9-7-7b^--------------------------------------------- 
-|------------|-------------------9-9v---------------------------------------- 
-|------------|--------------------------------------------------------------- 
-|------------|--------------------------------------------------------------- 
           x18 
 
-----10--12br-p10--12-12-12br-p10-12------/17-17-19-19--19-19-19-19p17h19-19-- 
-12b-------------------------------------------------------------------------- 
------------------------------------------------------------------------------ 
------------------------------------------------------------------------------ 
------------------------------------------------------------------------------ 
------------------------------------------------------------------------------ 
 
 
-19-19p17h19-19-19/--21b-19-19----17v--|------17v-|------17-19-19p17-19--19--- 
----------------------------------19v--|--17b-----|--17b---------------------- 
---------------------------------------|----------|--------------------------- 
---------------------------------------|----------|--------------------------- 
---------------------------------------|----------|--------------------------- 
---------------------------------------|----------|--------------------------- 
                                        x10 trem vibrato 
 
-21b-21-19-17------------17------------------------------7---7---7-----7------ 
--------------19-17--17b----17r--15-17br-p15-------------10b-10b-10b---10b---- 
---------------------------------------------16-16---------------------------- 
------------------------------------------------------------------------------ 
------------------------------------------------------------------------------ 
------------------------------------------------------------------------------ 
 
 
-7---7----7--7----9---9---9----9---9---9------10--10--10----12--12--12-------- 
-10b-10b--10-10---12b-12b-12b--12b-12b-12b----13b-13b-13b---15b-15b-15b------- 
------------------------------------------------------------------------------ 
------------------------------------------------------------------------------ 
------------------------------------------------------------------------------ 
------------------------------------------------------------------------------ 
 
 
-|-14--14-17p14-|--17-17-17/19-19-19--17-15-14h15p14-------------------------- 
-|-17b----------|------------------------------------17-15-15br--------------- 
-|--------------|-----------------------------------------------16p14-14------ 
-|--------------|------------------------------------------------------------- 
-|--------------|------------------------------------------------------------- 
-|--------------|------------------------------------------------------------- 
             x5 
 
------------------------------------------------------------------------------ 
------------------------------------------------------------------------------ 
------------------------------------------------------7---------------7-9-9b-- 
----------------------------------------------------7---7/9v------------------ 
--------------------------------------------5-7-7/9--------------------------- 
-////////////////////--3v-2v-0\----------/7----------------------------------- 
      pick scrape             trem dive 
improve..... 
 
---------------|----7---------|----------------------------------------------- 
---------------|------10-7----|----------------------------------------------- 
-7-9p7-7-9-9br-|-9b--------9--|-9br-7---7v---9br-------9b-7v------------------ 
---------------|--------------|-------9----------9-7-9------------9p7---9p7--- 
---------------|--------------|---------------------------------------9-----9- 
---------------|--------------|----------------------------------------------- 
 ...............etc.       x5 
 
------------------------------------------------------------------------------ 
------------------------------------------------------------------------------ 
-------------------------------------------------------4-4-4v--2/4-4-4---4\--- 
-------------------------------------------------------4-4-4v--2/4-4-4---4\--- 
-7h9p7------------------------------4br-p2-2-0-2v------2-2-2v--0/2-2-2---2\--- 
-------10-9-10p9-10p9--10-9-7v-\---------------------------------------------- 

  

Top cifras » Top artistas »
Anuncie no Cifras Termos de Uso Política de Privacidade Material de DivulgaçãoFale Conosco
Petaxxon Comunicação Online
Cifras.com.br - Melhor e mais completo site de cifras e tablaturas do Brasil
Mais de 1 milhão de cifras cadastradas desde 2003
As informações contidas no Cifras.com.br são colaborações de seus usuários e podem conter erros, sendo assim, não se responsabiliza sobre nenhuma destas.
R7 Música
close
 
redimensionar