» Cifras.com.br » Letras de músicas » Notícias » TV Cifras » Guitar Pro » Gospel

Início » Rock Clássico » Pink Floyd » Collection Of Great Dance Songs »

Shine On You Crazy Diamond

Pink Floyd

Shine On You Crazy Diamond

Pink Floyd Escute esta e outras músicas enquanto navega no Cifras

Ano: 1975 - Album: Collection Of Great Dance Songs

Autor:

Tom

Formatação

colunas A+ A- cores

Nível

Expert

Nível: Expert

Transcrição

enviada por gigiopanella


  transcribed by Dave Whitehill 
for Guitar World 
Shine On You Crazy Diamond Part 1 
 
------------------------------------------------------------------- 
----18>(20)!--18--18>(20)!----------------------------------------- 
-----------------------------------15--17--17>(19)--17--17>(19)!--- 
-------------------------------17---------------------------------- 
------------------------------------------------------------------- 
------------------------------------------------------------------- 
 
 
----------------------------------------------------------------------------- 
----------------------------------------------------------------------------- 
---(19)>17p15--17---17>(19)!---17-17>(19)>(18)--14h15h14----14--------------- 
----------------------------------------------------------17---15-15----15!-- 
---------------------------------------------------------------------17------ 
----------------------------------------------------------------------------- 
 
 
------------------------------------------------------------------------------ 
------------------------------------------------------------------------------ 
-----------------------------------------------------------------------17>(19)- 
-17>(20)--17>(20)!=====(20)=(20)-15-17-17>(20)---17>(20)>17--15--17-17!------- 
------------------------------------------------------------------------------ 
------------------------------------------------------------------------------ 
 
 
-------------------------15--18--18>(20)--18!\-------------------------------- 
--18--18(20)!---18>(20)------------------------------------------------------- 
-------------------------------------------------(19)>17p15!------------------ 
-----------------------------------------------------------------------15----- 
-------------------------------------------------------------------17--------- 
------------------------------------------------------------------------------ 
 
 
-------------------------------------------------------------------------- 
-------------------------------------------------------------------------- 
---------------------------------------------------------(19)>17--15--17-- 
---17!--17>(19)--17>(20)!====(20)==(17)---15--17!------------------------- 
-------------------------------------------------------------------------- 
-------------------------------------------------------------------------- 
 
 
--------------------------------15--------------------------------------------- 
-------------------18---18>(20)----18>(20)!\--18>(20)>18-15-------------------- 
-17>(19)---17>(19)------------------------------------------17>(19)!-17>(19)>17 
------------------------------------------------------------------------------- 
------------------------------------------------------------------------------- 
------------------------------------------------------------------------------- 
 
 
--------------------------------------------------------------------------- 
--------------------------------------------------------------18----------- 
15-17--17!\----------15----(19)>17-15-17-17>(19)!---17>(19)-------17>(19)!- 
--------------15>17-------------------------------------------------------- 
--------------------------------------------------------------------------- 
--------------------------------------------------------------------------- 
 
 
---------15---18!-----18--20>(22)!---18>(20)>18--17-------------- 
-18>(20)----------15----------------------------------18----20--- 
----------------------------------------------------------------- 
----------------------------------------------------------------- 
----------------------------------------------------------------- 
----------------------------------------------------------------- 
 
=============================================================================== 
 
!   vibrato 
 
 bend or slide(if it's a bend, the note to bend up to will be in parenthesis) 
 
 
17>(20)==============(17) 
		hold bend 
 
17>(20)>17   bend and release 
 
+++++++++++++++++++++++++++++++++++++++++++++++++++++++++++++++++++++++++++++++++ 
 
transcribe by Dave Whitehill 
form Guitar World 
			Shine On You Crazy Diamond 
				part 2 
			   by Pink Floyd 
 
 
			      tabbed by 
			  jamesb@nevada.edu 
 
 
 
chords; 
------- 
 
 
 
	C			Gm7			Eb 
-------12------		---------10-----	--------11----- 
-------13------		---------11-----	--------11----- 
-------12------		---------10-----	--------12----- 
---------------		----------------	--------------- 
---------------		----------------	--------------- 
---------------		----------------	--------------- 
 
 
	D 
-------10------ 
-------10------ 
-------11------ 
--------------- 
--------------- 
--------------- 
 
 
 
---------------0---- 
------6-------------		<-- repeat 4 times. 
----------0---(0)--- 
---8----------(8)--- 
-------------------- 
-------------------- 
 
 
 
C						 Gm7 
-------------0----------------------------------------------------0--- 
------6-----------------------------------------------------6--------- 
---------0-----------------------------------------------------0------ 
---8-----------------------------------------------------8------------ 
-----------------3--3--3--3--3--3--3--3--3--3/5----------------------- 
-----------------1--1--1--1--1--1--1--1--1--1/3----------------------- 
 
 
		Eb		D					Gm7 
------------------------------------------------------------------------ 
------6----------------------------------------------------------------- 
----------0---8------------8---7---------------------------------------- 
--8-----------8------------8---7---------------------------------------- 
-------------------------------------3--3--3--3--3--3--3--3--3--3/5----- 
-------------------------------------1--1--1--1--1--1--1--1--1--1/3----- 
 
 
 
------------------0--- 
-------6-------------- 
------------0--------- 
---8------------------ 
---------------------- 
---------------------- 
 
 
solo; 
----- 
 
 
-------------------------------------3--------------------------------------- 
----------------------------------3-----3------------------------------------ 
---17>(19)>17---15--17----------------------5>(7)----(7)>5>3------5---3------ 
------------------------17\------------------------------------5----------5-- 
----------------------------------------------------------------------------- 
----------------------------------------------------------------------------- 
 
 
--18>15-----18---17>(18)--17vvv--------------------------------------------- 
--15----15--15---------------------18>15--18>(20)----18>(20)>18>15--18vvvv-- 
---------------------------------------------------------------------------- 
---------------------------------------------------------------------------- 
---------------------------------------------------------------------------- 
---------------------------------------------------------------------------- 
 
 
 
--18>15------18>15-----18>(20)---18>(20)>1815--18------------------ 
---------15--------15------------------------------18>(20)--18\---- 
------------------------------------------------------------------- 
------------------------------------------------------------------- 
------------------------------------------------------------------- 
------------------------------------------------------------------- 
 
 
-------------------------------------------------------------------------- 
-------------------------------------------------------------------------- 
--15>(17)>(19)>15--12--15>(16)vvv-12------6\5--3>(4)---------------------- 
-------------------------------------------------------5------------------ 
-----------------------------------------------------------4\3---1--3/5--- 
--------------------------------------------------------------------1/3--- 
 
 
--------------------------6-------------------------------------- 
-----------------------------5/6--8/-------(11)>10>8------8/----- 
------3--------------6>7------------------------------10--------- 
------3--3/5vvvvvv----------------------------------------------- 
--4/5------------------------------------------------------------ 
----------------------------------------------------------------- 
 
 
------------------------------------------------------------------------- 
------------------------------------------------------------------------- 
---15--17>(19)>17>(19)----17>(19)>(20)vvvvv----17>(19)>(20)---17>(20>17-- 
------------------------------------------------------------------------- 
------------------------------------------------------------------------- 
------------------------------------------------------------------------- 
 
 
--------------------------------15----15-----15--------------15---15-- 
----------------------------18>(20)------18>(20)>18>15---18>(20)------ 
---------------------------------------------------------------------- 
--16---16>17>16\14>16--16--------------------------------------------- 
---------------------------------------------------------------------- 
---------------------------------------------------------------------- 
 
 
--17>(18)--17>(18)---17----------------------------------------------- 
-------------------------18>(20)----(20)>18>15---18------------------- 
-----------------------------------------------------17>(19)=====>17-- 
---------------------------------------------------------------------- 
---------------------------------------------------------------------- 
---------------------------------------------------------------------- 
 
 
--------------------------------------------------------------------------- 
--------------------------------------------------------------------------- 
--(19)>17>15-----------------3---5---5>(7)>(8)>5---(8)>5--3--5--5>(7)vvvv-- 
--------------17\---------5------------------------------------------------ 
--------------------------------------------------------------------------- 
--------------------------------------------------------------------------- 
 
 
----------------------------------------------------------------------- 
----------3----6------------------------------------------------------- 
---5>(7)-----------5>(8)==========>5--(7)>5>3-----5--5>(7)vvvvvvvv>5--- 
----------------------------------------------------------------------- 
----------------------------------------------------------------------- 
----------------------------------------------------------------------- 
 
 
Keyboard solo; 
 
Gm					 Cm 
------------------------------------------------------------ 
---------5\3-------------------5\3-------------------10\8--- 
------------------------------------------------------------ 
---3/5---5\3--------------3/5--5\3-------------8/10--10\8--- 
---------------------------------------5-------------------- 
------------------------------------6----------------------- 
 
 
Gm		   Eb	   D	 Eb		D    Gm    Cm   Gm    D7#9 
---------------------------------------------------------------------------- 
--------5\3-----8------7------8------11\---7---------------------------6---- 
-----------------------------------------------------------------------5---- 
---3/5--5\3-----8------7------8------11\---7---------------------------4---- 
-----------------------------------------------------------------------5---- 
---------------------------------------------------------------------------- 
 
 
solo 
 
------15------------15---18>15-------------------3----------------0---------- 
--15-------18>(20)--------------18>(20)\------3------6----------------------- 
---------------------------------------------------------5>(7)----5>3--5--3-- 
----------------------------------------------------------------------------- 
----------------------------------------------------------------------------- 
----------------------------------------------------------------------------- 
 
 
-----------------------------------------------------------18----------------- 
--------------------------------------11----11-----18>(20)-----18>(20)vvvv18\- 
----------15>(17)>15>(19)>15----11/12----12----------------------------------- 
--5vvvv----------------------------------------------------------------------- 
------------------------------------------------------------------------------ 
------------------------------------------------------------------------------ 
 
 
-------6>5-------------------------------------------------------------- 
------------6/8\-------------------------------------------------------- 
--6/7--------------(17)>15>(19)>15--------15--17>(18)>17>15--17--17>15-- 
------------------------------------15/17------------------------------- 
------------------------------------------------------------------------ 
------------------------------------------------------------------------ 
 
 
-------------------------------3---------------------------------------------- 
----------------------------------6--------------------3---------------------- 
--17--17--17>15--17>(19)vvvv\--------5>(7)---5--3>(5)--3---3---5----3\2------- 
---------------------------------------------------------5-------5------3----- 
--------------------------------------------------------------------------3/5- 
------------------------------------------------------------------------------ 
 
 
-----------------------------------------------15------------------------- 
-------------------------------------18>(20)--------18>(20)-----18>(20)--- 
--------3---------15>(17)>15>(19)>0--------------------------0------------ 
-----------3>5------------------------------------------------------------ 
--4/5--------------------------------------------------------------------- 
-------------------------------------------------------------------------- 
 
 
--15--18>15--18>(20)vvv-----18>(20)>18>15--18--------------------------------- 
-----------------------------------------------18>(20)------------------------ 
-------------------------0-----------------------------------15--17--17>(19)-- 
---------------------------------------------------------17------------------- 
------------------------------------------------------------------------------ 
------------------------------------------------------------------------------ 
 
 
-------------------------------------------------------------------- 
-------------------------------------------------------------------- 
--17>(20)---17>(20)>17---------------------------------14--15vvvv\-- 
-------------------------16vvvv---16>17>16\14--16--17--16--17vvvv\-- 
-------------------------------------------------------------------- 
-------------------------------------------------------------------- 
 
-----3----------------------------------------------------------- 
--3----6--------------------------------------------------------- 
----------5>(7)vvvv>5---(8)>5>3---5--3----3---------------------- 
----------------------------------------5----5------------------- 
------------------------------------------------5\3--1--3/5--5\-- 
----------------------------------------------------------------- 
 
 
legend; 
------- 
 
 
legato						---7>6>7---- 
bend(and release)				--7>(8)>7--- 
hold bend					--7>(8)===>7- 
vibrato						--7vvvvvvvv- 
slide						---7/8------ 
 
+++++++++++++++++++++++++++++++++++++++++++++++++++++++++++++++++++++++++++++++++ 
part 3 
			    by Pink Floyd 
 
 
			      tabbed by 
                          jamesb@nevada.edu 
 
 
verse; 
 
(from "Remember when you were young....) 
 
-------------------------------------3------- 
----------------------------------3--3------- 
-----3-----5>(7)>5----------------3---------- 
--5-----5------------4---------3------------- 
-------------------------------1----------5-- 
--------------------------------------------- 
 
 
(from "Shine on....) 
 
-------------------------------------------------- 
-------------------------------------------------- 
-------------------------------------------------- 
--8---8---5---3---3------------------------------- 
--6---5---3---1---3---3>(5)>3--------------------- 
------------------1-------------1vvvv---1--2vvvv-- 
 
 
(from "Now there's a look....) 
 
----------------------------------------------- 
----6>(8)>6---------2------------3--3--3------- 
-------------5>(7)---------------3--3--3------- 
-----------------------------3---3--3---------- 
-----------------------------1-------------5\-- 
----------------------------------------------- 
 
 
 
(from "Shine On....") 
 
-------------------------13--13--13--10--8/10--1-- 
-------------------------13--13--13--10--8/10--1-- 
---8---8---5---3---------------------------------- 
---6---5---3---1---------------------------------- 
--------------------1----------------------------- 
-------------------------------------------------- 
 
 
(from "You were cought in the...) 
	     and 
(from "Well you wore out your...) 
 
 
----------------------------------------------------------------- 
----------------------------------------------------------------- 
-----3--5--5>(7)>5-------3--5--5>(7)>5>3-----3--5--5>(7)>5------- 
--5-------------------4-------------------3------------------2--- 
----------------------------------------------------------------- 
----------------------------------------------------------------- 
 
 
-----------------------------------------------------------------------1---2--- 
-----------------------------------------5-----------------6-----------------3- 
-----------------8-----8--------------6-----6-----------7-----7---------------- 
-----------------8>10--8-----------5------------------8----------8--0----0----- 
--3--5--6--8/10-----------10\7--7----------------7--8-------------------------- 
------------------------------------------------------------------------------- 
 
 
interlude is part 4 
 
 
(from "You reached for the ...) 
---------------------------------------------------------3------------- 
----------------------11--13>(15)>13-----------------3---3---3--------- 
-----------------------3---5>(7)>5--->3--------------3-------3--------- 
---5-----------------------------------------4---3--------------------- 
-------------------------------------------------1------------------5-- 
---3------------------------------------------------------------------- 
 
 
(from "Shine On....") 
------------------------------------------------------------ 
------------------------------------------------------------ 
------------------------------------------------------------ 
---8---8---5---3-------------------------------------------- 
---6---5---3---1--------3---3>(5)--3------------------------ 
--------------------1---1-------------3>(5)---1vvvvvv--1/2-- 
 
 
 
(from "threatened by shodows...) 
------------------------------------------------------------ 
---6>(8)>6>(8)>6--6-----------------------------3-----3----- 
---------------------5>(7)---3>5>3vvvvvv--------3--3--3----- 
---------------------------------------------3--3--3-----3-- 
---------------------------------------------1-------------- 
----------------------------------------------------------- 
 
(from "Shine on .....") 
------------------------13--13--13--10--8\1-- 
------------------------13--13--13--10--8\1-- 
--------------------------------------------- 
---8--8--5--3-------------------------------- 
---6--5--3--1-------------------------------- 
-----------------1--------------------------- 
 
 
+++++++++++++++++++++++++++++++++++++++++++++++++++++++++++++++++++++++++++ 
Shine On You Crazy Diamond 
				 part 4 
			    by Pink Floyd 
 
			       tabbed by 
        		   jamesb@nevada.edu 
 
 
 
two guitars 
 
----------------------------------------------------- 
--13>(15)vvvvvvvvv--(15)>13>11--13>(15)vvvvvvvvvvv--- 
---5>(7)vvvvvvvvvv---(7)>5>3-----5>(7)vvvvvvvvvvvv--- 
----------------------------------------------------- 
----------------------------------------------------- 
----------------------------------------------------- 
 
 
-----------------------------------------13--15>(16)--15vvvvv\-- 
--(15)>13--11--13--14--15vvvv---15--16----6---8>(9)----8vvvvv--- 
---(7)>5----3---5---6---7vvvv----7---8-------------------------- 
---------------------------------------------------------------- 
---------------------------------------------------------------- 
---------------------------------------------------------------- 
 
 
---------------------------------------------------------------------------- 
--15>(16)-----15-------16>(18)--16>15---13vvv------------------------------- 
---7>(8)-------7--------8>(10)---8>7-----5vvv----12>10vvvvvv---------------- 
--------------------------------------------------------------------4vvvvv-- 
---------------------------------------------------------------------------- 
-----------------------------------------------3>(5)>3--1vvvv---1---2vvvvv-- 
 
 
+++++++++++++++++++++++++++++++++++++++++++++++++++++++++++++++++++++++++++++++++ 
    part 5 
			  by Pink Floyd 
 
 			    tabbed by 
			jamesb@nevada.edu 
 
 
---------------0------------------------------0---- 
------6-----------------------------6-------------- 
---------0----(0)------------------------0---(0)--- 
--8-----------(8)---------------8------------(8)--- 
--------------------------------------------------- 
---------------------1>3>1>3----------------------- 
 
 
--8-------10------8------0------8------10-------8-------- 
----6--------6------6------6------6-------6--------6----- 
--------------------------------------------------------- 
-------8-------8------8------8------8-------8---------8-- 
--------------------------------------------------------- 
--------------------------------------------------------- 
 
 
-0--------8--------10------8-------0------8--------10-------8-------- 
----6--------6---------6-----6-------6-------6--------6--------6-----	<---- 
---------------------------------------------------------------------	 repeat 
-------8--------8--------8------8-------8-------8--------8-------8---	   3 
---------------------------------------------------------------------	 times. 
--------------------------------------------------------------------- 
 
 
 
--6---6------6-------5-------6-------6--------6------5------6--------- 
---------------8-------8-------8--------8-------8------8-------8------ 
---------------------------------------------------------------------- 
---------8--------8-------8-------8--------8-------8-----8--------8--- 
---------------------------------------------------------------------- 
---------------------------------------------------------------------- 
 
 
--5-------5-------4-------5--------6-----5--------4-----5--------- 
----7-------7-------7--------7--------7-----7--------7-----7------ 
------------------------------------------------------------------ 
------7--------7-------7--------7-------------7---------------7--- 
------------------------------------------------------------------ 
------------------------------------------------------------------ 
 
 
--0-------8--------10--------8-------0-------8-------10--------8------- 
----6-------6----------6-------6-------6--------6--------6-------6-----	<----- 
-----------------------------------------------------------------------	repeat 
------8--------8---------8--------8-------8--------8--------8-------8--	  8 
-----------------------------------------------------------------------	times. 
----------------------------------------------------------------------- 
 
 
--6------6------5------6------6------6-----5-------6--------- 
----8------8------8-------8-----8-------8-----8------8------- 
------------------------------------------------------------- 
------8-------8------8------8------8-------------8------8\7-- 
------------------------------------------------------------- 
------------------------------------------------------------- 
 
 
--5-----5-----4-----5-----6------5-----4-----5--------- 
-----7----7-----7-----7-----7-------7-----7-----7------ 
------------------------------------------------------- 
------------7-----7-----7-----7--------------------7--- 
------------------------------------------------------- 
------------------------------------------------------- 
 
 
--0-------8-------10------8------0--------8-------10--------8---------- 
-----6-------6-------6------6-------6-------6---------6--------6-------	<----- 
-----------------------------------------------------------------------	repeat 
-------8-------8--------8------8-------8-------8---------8---------8---   and 
-----------------------------------------------------------------------	 fade 
----------------------------------------------------------------------- 
 
 
 
 

  

top cifras pink floyd
top cifras rock clássico
ver mais cifras desse artista var letras desse artista
Top cifras » Top artistas »
Anuncie no Cifras Termos de Uso Política de Privacidade Material de DivulgaçãoFale Conosco
Petaxxon Comunicação Online
Cifras.com.br - Melhor e mais completo site de cifras e tablaturas do Brasil
Mais de 1 milhão de cifras cadastradas desde 2003
As informações contidas no Cifras.com.br são colaborações de seus usuários e podem conter erros, sendo assim, não se responsabiliza sobre nenhuma destas.
R7 Música
close
 
redimensionar