» Cifras.com.br » Letras de músicas » Notícias » TV Cifras » Guitar Pro » Gospel
Pixinguinha

Carinhoso

Pixinguinha Escute esta e outras músicas enquanto navega no Cifras

Ano: 1997 - Album: Raizes Do Samba

Autor: (Pixinguinha / João de Barro)

Formatação

colunas A+ A- cores

Nível

Iniciante

Nível: Iniciante

Transcrição

enviada por gago


corrigida por Acelot

  
Intro: 
e|----------2------------2---------------2----------2--------| 
B|----------3---------3--3------------3--3----------3--------| 
G|------2------2---3---------3---4----------4---3------3--3--| 
D|---0-------------0-------------0---------------------------| 
A|-----------------------------------------------------------| 
E|-----------------------------------------------------------| 
D|-----------------------------------------------------------| 

e|----------2------------2---------------2-------------2-----------2-| 
B|------3---3---------3---------------3-------------3--3--------3--3-| 
G|---2---------2---3---------3---4----------4---3----------3--2----2-| 
D|---0-------------0-------------0--------------0-------------0------| 
A|-------------------------------------------------------------------| 
E|-------------------------------------------------------------------| 
D|-------------------------------------------------------------------| 



e|-----------2----------------2--------------2-------------2-------| 
B|--------3----------------3--------------3-----3-------3-----3----| 
G|----2---------2---3-------------3---4---------4---3--------------| 
D|-----------------------------------------------------------------| 
A|-----------------------------------------------------------------| 
E|-----------------------------------------------------------------| 
D|----2-------------2-----------------2----------------------------| 

e|-----------2---------------2--------------2--2--0-----2---------| 
B|--------3---------------3--------------3-----2-----3--------3---| 
G|----2---------2---3------------3---4---------0-----------2------| 
D|---------------------------------------------2--------0---------| 
A|---------------------------------------------0------------------| 
E|----------------------------------------------------------------| 
D|----2-----------------------------------------------------------| 


Theme parte 1: 

e|---2--0------2---------------------2-----------2-----| 
B|---2-----3-----------3----------3-----------3-----3--| 
G|---0-------------2------2---3---------3--4-----------| 
D|---2---------0---------------------------------------| 
A|---0-------------------------------------------------| 
E|-----------------------------------------------------| (2x) 
D|-----------------------------------------------------| 

e|---5--4---2-----5--------------------5-------------5-----| 
B|----------------------7-----------7-------------7--------| 
G|-------------------6-----6--7------------7--8----------8-| 
D|---------------------------------------------------------| 
A|---------------0-----------------------------------------| 
E|---------------------------------------------------------| 
D|---------------------------------------------------------| 

e|---5--4--2---------9------------------------------------9-| 
B|------------------------------------10-----------------10-| 
G|--------------------------13-----------------13--------13-| 
D|----------------------11------11---------11------11----11-| 
A|------------------9-------------------------------------9-| 
E|----------------------------------------------------------| 
D|----------------------------------------------------------| 

e|---9--8--9----12------11--10--9-----9---12------7-| 
B|---------------9----------------12--------------8-| 
G|---------------9--------------------------------6-| 
D|------------------------------------------------7-| 
A|------------------------------------------------0-| 
E|---------------0----------------------------------| 
D|--------------------------------------------------| 

e|--7--5---10-----5-------------4--3--2----7/-----2-| 
B|----------------5-------------4-----------------3-| 
G|----------------5---5---------2-----------------1-| 
D|----------------4-------------------------------2-| 
A|--------------------------2-----------------------| 
E|------------------------------------------------0-| 
D|--------------------------------------------------| 




e|---9--8--9----12------11--10--9-----9---12----7-| 
B|---------------9----------------12------------8-| 
G|---------------9------------------------------6-| 
D|----------------------------------------------7-| 
A|----------------------------------------------0-| 
E|------------------------------------------------| 
D|---------------0--------------------------------| 

e|----7--5---10--5-5-------------------4--3--2--7/----2-| 
B|-----------------5--------------4-------------------4-| 
G|-----------------5--------------2-------------------1-| 
D|-----------------4--------------4-------------------2-| 
A|------------------------------------------------------| 
E|------------------------------------------------------| 
D|-------------------0---1---2--3---------------------0-| 



e|---2--0--------2-------------2--------------0-0-----0------------| 
B|----------3----3----------3---------3-------2-2--3------3----3---| 
G|---------------1-------1---------1-----1----0-0------------2---2-| 
D|---------------2----2--------2--------------2-2---------0--------| 
A|--------------------------------------------0-0------------------| 
E|--------------0--------------------------------------------------| 
D|-----------------------------------------------------------------| 

e|------------------| 
B|---------3------3-| 
G|-----------3----2-| 
D|------2---------0-| 
A|------------------| 
E|----3-----------2-| 
D|------------------| 

Theme part 2: 

e|----9---10---9-------------------------------------------| 
B|---10-----------12---10---12--10--9-------9--------------| 
G|----9---------------------------------11------11--9------| 
D|------------------------------------------------------12-| 
A|----9----------------------------------------------------| 
E|---------------------------------------------------------| 
D|---------------------------------------------------------| 

e|----------------------------------------| 
B|------------9----10---9-----------------| 
G|----9--11--------10--------11--10---11--| 
D|------------------9---------------------| 
A|-------------------------------------9--| 
E|------------------9---------------------| 
D|----------------------------------------| 

e|-------------------------------------------------------| 
B|-----------------------------------------------------9-| 
G|-----------------------------------------------------9-| 
D|-11--12-11--9----------------------------------------9-| 
A|---------------12--9---12---11---9--11--9--------------| 
E|-------------------------------------------12---10-----| 
D|-------------------------------------------------------| 

e|-------------------------9-----------------------------------------| 
B|------------9--10--11------------12---10-----------------9--10--12-| 
G|----9--11----------------------------------11---9---11-------------| 
D|-------------------------------------------------------------------| 
A|-------------------------0-----------------------------------------| 
E|-------------------------------------------------------------------| 
D|-------------------------------------------------------------------| 

e|---9--------------------------------5-| 
B|-------12--------10--9--------------5-| 
G|------------11-----------11--9------6-| 
D|--------------------------------------| 
A|------------------------------------0-| 
E|--------------------------------------| 
D|--------------------------------------| 

e|-5--------5--6--------6--7--------7--9---------9--10-| 
B|-5-----5-----------5-----------7------------8------7-| 
G|-6--6------------6----------7------------9---------7-| 
D|-------------5-------------------------------------0-| 
A|-0-----------------------------------0---------------| 
E|------------------------7----------------------------| 
D|-----------------------------------------------------| 

e|----9---7----7-------------------------------------------------| 
B|----7--------10--7-----3----2----------------------------------| 
G|----7-----------------------------------------4---4---4---4----| 
D|----------------------------------------3--3--3---3-3-3---3-3--| 
A|--------------------------------4---------------4-------4------| 
E|---------------------------------------------------------------| 
D|---------------------------------------------------------------| 

e|------------------9---7--------3--2--0--2--3---2-| 
B|---------6---9--------8--------5--3--2--3--5---3-| 
G|-----------------------------------------------2-| 
D|-----------------------------------------------0-| 
A|-------------------------0-----------------------| 
E|---------------------0---------------------------| 
D|-------------------------------------------------| 

e|------------10------------------9--10---9---7--------| 
B|----6--7--------------7---------7-----------7----7---| 
G|-------------------7------------7-----------7--7-----| 
D|-------------9-----------9--8---------------7------7-| 
A|-----------------------------------------------------| 
E|-----------------------------------------------------| 
D|-----------------------------------------------------| 

e|-------5---7--5---3--------------2--3--2----0----2-3-4-5---6-| 
B|-------7----------------0--------4-------------------------3-| 
G|-------8-------------0-----0-----2-------------------------3-| 
D|-------7-------------------------4-------------------------5-| 
A|---0-----------------------------2---------------------------| 
E|-----------------0--------------------------0----------------| 
D|-------------------------------------------------------------| 

e|---10---10----2--1--2---5------------------------------------| 
B|---------7------------------------3------5--7-----3--------3-| 
G|---------7---------------------4-------------------------4---| 
D|---------0------------------5-------------------------4------| 
A|-----------------------0------------0------------------------| 
E|--------------------------------------------------4----------| 
D|-------------------------------------------------------------| 

e|--------------------------------------------------------------2---0------2-| 
B|-------3---------3---3---------3---3----------3----3------3---2------2---3-| 
G|--------------3-------------2------1-------1-------0----0-----0----------2-| 
D|-----------2-------------0--------------0----------4--4-------2----------0-| 
A|--------------------------------------------------------------0------------| 
E|------3-------------2--------------1---------------0-----------------------| 
D|---------------------------------------------------------------------------| 






  

Top cifras » Top artistas »
Anuncie no Cifras Termos de Uso Política de Privacidade Material de DivulgaçãoFale Conosco
Petaxxon Comunicação Online
Cifras.com.br - Melhor e mais completo site de cifras e tablaturas do Brasil
Mais de 1 milhão de cifras cadastradas desde 2003
As informações contidas no Cifras.com.br são colaborações de seus usuários e podem conter erros, sendo assim, não se responsabiliza sobre nenhuma destas.
R7 Música
close
 
redimensionar