» Cifras.com.br » Letras de músicas » Notícias » TV Cifras » Guitar Pro » Gospel

Início » Rock'n Roll » Raimundos » »

Eu Quero Ver O Oco

Raimundos

Eu Quero Ver O Oco

Raimundos Escute esta e outras músicas enquanto navega no Cifras

Autor:

Formatação

colunas A+ A- cores

Nível

Sem Nível

Nível: Sem Nível

Transcrição

enviada por K.I.N.H.O


  Raimundos - Eu quero ver o oco  
Obs:  afine a 6ª corda da guitarra (mais grossa) em D(Ré)!  
     ( )bend  
     / ou \: slide  
 
Começa com o baixo:  
A|--2-2--2-3-2-3-2--2--2-3-2-3-...  
E|:----------------------------- 
 
Intro:  
e|---------------------------------------------------|  
B|---------------------------------------------------|  
G|---------------------------------------------------|  
D|---------------------------------------------------|2X  
A|--5-7-0--2-2-2-0-2--2--5-7-0-2-5-7-0--2-2-2-0-2--2-|  
D|--5-7-0--2-2-2-0-2--2--5-7-0-2-5-7-0--2-2-2-0-2--2-|  
 
e|-----------------------------------------------------|  
B|-----------------------------------------------------|  
G|-----------------------------------------------------|  
D|-----------------------------------------------------|2X  
A|--5-7-0--2-2-2-0-2-0-2--5-7-0-2-5-7-0--2-2-2-0-2-0-2-|  
D|--5-7-0--2-2-2-0-2-0-2--5-7-0-2-5-7-0--2-2-2-0-2-0-2-|  
 
Intro b:  
e|---------------------|  |---|  
B|---------------------|  |---|  
G|---------------------|  |---|  
D|---------------------|4X|---|  
A|--5-5-7-8-9-9-10-11--|  |-2-|  
D|--5-5-7-8-9-9-10-11--|  |-2-|  
 
Riff1:(2x)  
e|----------------------------------------------------------------------|  
B|----------------------------------------------------------------------|  
G|----------------------------------------------------------------------|  
D|----------------------------------------------------------------------|  
A|-(5-7-0)-2-2-2-0-2-0-2--5-7-0-2-4-5-0--2-2-2-0-2-0-2--5-5-5-5-3-3-3-3-|  
D|-(5-7-0)-2-2-2-0-2-0-2--5-7-0-2-4-5-0--2-2-2-0-2-0-2--5-5-5-5-3-3-3-3-|  
    *a parte entre parênteses() só é tocada na 1ª vez  
 
Riff2:  
e|-----------------------------------------------------------------------------  
B|-----------------------------------------------------------------------------  
G|-----------------------------------------------------------------------------  
D|-----------------------------------------------------------------------------  
A|--5-5-7-8-9-9-10-11---5-5-7-8-9-9-9-9---5-5-7-8-9-9-10-11---5-5-5-5-7-7-7-7--    
D|--5-5-7-8-9-9-10-11---5-5-7-8-9-9-9-9---5-5-7-8-9-9-10-11---5-5-5-5-7-7-7-7--    
   |-----3 vezes-----|                   |-----3-vezes-----|  
 
Riff1:(2x) sem parênteses!  
 
Riff2  
 
Refrão:  
e|-----------------------------------|  
B|-----------------------------------|  
G|-----------------------------------|  
D|-----------------------------------|4x  
A|-0-0-0-0-0--0--3-3-3-5-5-6-7-------|  
D|-0-0-0-0-0--0--3-3-3-5-5-6-7-------|  
 
Riff3:  
e|---------------------------------------------|  
B|---------------------------------------------|  
G|-4-4-4-5-4-5-4-4-4-5-4-5-4-4-4-5-4-5-4-4-4-4-|  
D|-4-4-4-5-4-5-4-4-4-5-4-5-4-4-4-5-4-5-4-4-4-4-|  
A|-2-2-2-3-2-3-2-2-2-3-2-3-2-2-2-3-2-3-2-2-2-2-|  
D|---------------------------------------------|  
 
Riff1: (sem tocar parênteses) (2x)  
 
Riff2  
 
Refrão:(4x)  
 
Depois do Refrão toque:  
A|-0-| e a outra guitarra fica fazendo "barulho"  
E|-0-| até entrar o solo.  
 
Solo:  
e|--8/7-7~--7-8-7-8-10-10(12)-10------------------------------------------------ 
B|----------------------------------7----7-8-7-8b-8-7----------------------9/10- 
G|------------------------------9-9---9---------------9-7-9-9/11-9-7---9~--8/9--  
D|-------------------------------------------------------------------9---------- 
A|------------------------------------------------------------------------------ 
D|------------------------------------------------------------------------------ 
 
e|-----------------------------15-15-15-14--15-14-12-12-14-15-14-12~-|  
B|-7/8-6/7-----------------------------------------------------------|  
G|-6/7-5/6---4-2-4-4/5-5/7~------------------------------------------|  
D|-------------------------------------------------------------------|  
A|-------------------------------------------------------------------|  
D|-------------------------------------------------------------------|  
 
Durante o solo a 2ª guitarra toca:  (4x)  
e|----------------------------------------------------|  
B|----------------------------------------------------|  
G|-4-4-4-5-4-5-4-4-4-5-4-5-4--------------------------|  
D|-4-4-4-5-4-5-4-4-4-5-4-5-4--------------------------|  
A|-2-2-2-3-2-3-2-2-2-3-2-3-2-5-5--5-5-7-2-2-2-0-2-2-2-|  
D|---------------------------5-5--5-5-7-2-2-2-0-2-2-2-|  
 
Refrão: (4x)  
 
Digão continua solando:  
 "Eu quero ver o oco!" "Eu quero ver o oco!"  
e|---------------------------------------------------------------|  
B|-----------------9(11)-9(11)-9(11)---11/13~-13/15~-15/16~------|  
G|-------------------------------------------------------12/14~--|  
D|---------------------------------------------------------------|  
A|---------------------------------------------------------------|  
E|---------------------------------------------------------------| 
 

  

Conseguiu tocar essa música? Ficou legal? Então, mostre para todo mundo no Você Canta, receba notas e comentários. Cante agora

Top cifras » Top artistas »
Anuncie no Cifras Termos de Uso Política de Privacidade Material de DivulgaçãoFale Conosco
Petaxxon
Cifras.com.br - Melhor e mais completo site de cifras e tablaturas do Brasil
Mais de 1 milhão de cifras cadastradas desde 2003
As informações contidas no Cifras.com.br são colaborações de seus usuários e podem conter erros, sendo assim, não se responsabiliza sobre nenhuma destas.
R7 Música
close
 
redimensionar