» Cifras.com.br » Letras de músicas » Notícias » TV Cifras » Guitar Pro » Gospel

Início » Gospel » Regis Danese » Compromisso »

Faz Um Milagre Em Mim

Regis Danese

Faz Um Milagre Em Mim

Regis Danese Escute esta e outras músicas enquanto navega no Cifras

Ano: 2008 - Album: Compromisso

Autor: (Kelly Danese / Regis Danese)

Formatação

colunas A+ A- cores

Nível

Iniciante

Nível: Iniciante

Transcrição

enviada por Edson_94


  Intro.: G D/F# Em 

    G       D/F#                 Em,Em7,Em >(sequência rápida) 
e|-7--5---3----5----5------3-----2—3| 
   Como   Zaqueu    eu quero    subir 
          C             G/B 
e|-5---7---8-8---8-8--10—7| 
   O mais alto que eu puder 
          D/F#              Em,Em7,Em >(sequência rápida) 
e|7---5---3-—5---5-—5—-3--2--3| 
  Só pra te ver, olhar para Ti; 
       C                         G 
e|5---7---8---7-8---7---8--8-10----7| 
  E  chamar  sua  atenção para   mim. 
                       C         C9 G 
e|10---10--10-12--10--10---2---2| 
  Eu   pre-ci-so  de  Ti,  Senhor 
                       C         C9 G 
e|10---10-10-12----10-10---3---3| 
  Eu  pre-ci-so   de  Ti, Oh! Pai 
                    Am 
e|10---10-10--8--7---8| 
  Sou  pe-que-no demais 
  Am/G         F 
e|8---8—7--3---5| 
  Me dá a Tua Paz 
    C/E              D/F#  G 
e|3---3---3—3—7---7---8--7-5| 
  Lar-go tudo pra te seguir. 

                   D/F# 
e|7--7--7---8—10--10---7| 
  Entra na minha  ca – sa 
                   Em 
e|10--10-10--3--2—12-12| 
  En-tra na minha vi–da 
                     C 
e|12-10-12--10—12--10--8--12| 
  Me-xe com mi-nha es-tru-tura 
   D/F#               G/B 
e|12—12--10—10--5--5--7-7| 
  Sa–ra  to-das as feridas 
                        D/F# 
e|7--7---7--7--8----10--10-10--7| 
  Me en-si-na a ter San-ti–da–de 
                          Em 
e|10--10-10-10--3-----3—2-12| 
  Que-ro  amar  somente a Ti, 
                                   C 
e|12---12-10----12--10---12--10---3—3| 
  Por-que  o Senhor  é o meu bem maior, 
   D/F#              G 
e|8----8--7---5--7---7---5-3| 
  Faz um Milagre em mim.  

Intro.: G D/F# Em,Em7,Em  
  C                        G 
e|----3/4-------------------|  
b|----3/4------3/5-----3----|  
g|-------------2/4-----2----|ACRESCENTA O ACORDE G 
D|--------------------------| 
A|--------------------------| 
E|--------------------------| 
(/ ESTE SINAL É PARA ARRASTAR) 

VOLTA PARA O ÍNÍCIO 


  

Top cifras » Top artistas »
Anuncie no Cifras Termos de Uso Política de Privacidade Material de DivulgaçãoFale Conosco
Petaxxon Comunicação Online
Cifras.com.br - Melhor e mais completo site de cifras e tablaturas do Brasil
Mais de 1 milhão de cifras cadastradas desde 2003
As informações contidas no Cifras.com.br são colaborações de seus usuários e podem conter erros, sendo assim, não se responsabiliza sobre nenhuma destas.
R7 Música
close
 
redimensionar