» Cifras.com.br » Letras de músicas » Notícias » TV Cifras » Guitar Pro » Gospel
Logo Cifras.com.br

Início » Gospel » Renascer Praise » »

A Guerra Ganha Está

Renascer Praise

A Guerra Ganha Está

Renascer Praise Escute esta e outras músicas enquanto navega no Cifras

Autor:

Formatação

colunas A+ A- cores

Nível

Expert

Nível: Expert

Transcrição

enviada por Guitera


  Tab feita na escala de pentatonica Cm, segundo a harmonia da orquestra: 

E|-|--------------------------------|--------------------------------------------------------------| 
B|-|-----------------------------11-|------------------------------------------------------------8-| 
G|-|----------------------8--10-----|-8--10------8-10-8--------8-10-8-------------------8---8-10---| 
D|-|---------------8--10------------|-------------------10-8----------10-8---------8-10------------| 
A|-|--------8--10-------------------|--------------------------------------10-8-10-----------------| 
E|-|-8--11--------------------------|--------------------------------------------------------------| 

E|-|-----------------------------------------------------------------| 
B|-|-------------------------------------------------8---------------| 
G|-|-8-10-8--------8-10-8-------------------8---8-10-----8-10-8------| 
D|-|--------10-8----------10-8---------8-10---------------------10-8-| 
A|-|---------------------------10-8-10-------------------------------| 
E|-|-----------------------------------------------------------------| 

(intervalo do solo do baixo) 

E|-|-------------------------------------------------8--------8---| 
B|-|-----------------------------------------------8-----8-11-----| 
G|-|-8--10------8-10-8--------8-10-8-------------8----------------| 
D|-|-------------------10-8----------10-8------8------------------| 
A|-|--------------------------------------10-8--------------------| 
E|-|--------------------------------------------------------------| 

E|-|-------------------------------------------------------------8-----------------------------| 
B|-|-8--11--8-----------8-11-8------11-8-----------------------8----------8--------------------| 
G|-|-----------10--8-----------10-8------10-8----------------8-------8-10----8-10-8------------| 
D|-|------------------------------------------10-8---------8------------------------10-8-------| 
A|-|-----------------------------------------------10-8-10-------------------------------------| 
E|-|-------------------------------------------------------------------------------------------| 

E|-|-------------------------8-------------------------------------------------------8---------| 
B|-|-----------------------8-----------8-------------------------------------------8-----------| 
G|-|--8-10-8-------------8--------8-10-------8-10-8--------8-10-8----------------8-------------| 
D|-|---------10-8------8----------------------------10-8----------10-8---------8---------------| 
A|-|--------------10-8-------------------------------------------------10-8-10-----------------| 
E|-|-------------------------------------------------------------------------------------------| 

E|-|------------------------------------------------------------------------------| 
B|-|-8-11-8--------8-11-8---------------------------------------------------------| 
G|-|--------10-8----------10-8--10-8----------------------------------------------| 
D|-|---------------------------------10-8--10-8-----------------------------------| 
A|-|--------------------------------------------10-8---10-8------10-8-------------| 
E|-|--------------------------------------------------------11-8------11-8--11\~--| 

E|-|----------------------------------------------------------------| 
B|-|-8-11-8---------------------------------------------------------| 
G|-|--------10-8--10-8----------------------------------------------| 
D|-|-------------------10-8--10-8-----------------------------------| 
A|-|------------------------------10-8---10-8------10-8-------------| 
E|-|------------------------------------------11-8------11-8--11\~--| 

E|-|----------------------------------------------------------------------------------------------| 
B|-|---------------------------------------11-----------------------------------------------------| 
G|-|----------------------------8-10--8-10--------------------------------------------------------| 
D|-|-----------------8-10--8-10-------------------------------------------------------------------| 
A|-|------8-10--8-10------------------------------------------------------------------------------| 
E|-|-8-11-----------------------------------------------------------------------------------------| 

E|-|----------------------------------------------------------------| 
B|-|-8-11-8---------------------------------------------------------| 
G|-|--------10-8--10-8----------------------------------------------| 
D|-|-------------------10-8--10-8-----------------------------------| 
A|-|------------------------------10-8---10\~-----------------------| 
E|-|----------------------------------------------------------------| 

 O solo da guitarra e do baixo assim que termina a introdução da orquestra 
 (2x) 
E|-|----------------------------------------------------------------| 
B|-|----------------------------------------------------------------| 
G|-|-5-8-5-----5----------------------------------------------------| 
D|-|-------8-7---7-5-4--7-4-----4-----------------------------------| 
A|-|------------------------7-6---6-4-3-----------------------------| 
E|-|----------------------------------------------------------------| 

E|-|----------------------------------------------------------------| 
B|-|----------------------------------------------------------------| 
G|-|-------------------------5-6-7-8--------------------------------| 
D|-|---------1-2-3-4-4-5-6-7----------------------------------------| 
A|-|-3-4-5-6--------------------------------------------------------| 
E|-|----------------------------------------------------------------| 

E|-|----------------------------------------------------------------| 
B|-|----------------------------------------------------------------| 
G|-|-5-8-5-----5----------------------------------------------------| 
D|-|-------8-7---7-5-4--7-4-----------------------------------------| 
A|-|------------------------7-6-------------------------------------| 
E|-|----------------------------------------------------------------| 
  

top cifras renascer praise
top cifras gospel
ver mais cifras desse artista var letras desse artista
Top cifras » Top artistas »
Anuncie no Cifras Termos de Uso Política de Privacidade Material de DivulgaçãoFale Conosco
Petaxxon Comunicação Online
Cifras.com.br - Melhor e mais completo site de cifras e tablaturas do Brasil
Mais de 1 milhão de cifras cadastradas desde 2003
As informações contidas no Cifras.com.br são colaborações de seus usuários e podem conter erros, sendo assim, não se responsabiliza sobre nenhuma destas.
R7 Música
close
 
redimensionar