» Cifras.com.br » Letras de músicas » Notícias » TV Cifras » Guitar Pro » Gospel
Logo Cifras.com.br

Início » Rock Clássico » Ritchie Valens » »

La Bamba

Ritchie Valens

La Bamba

Ritchie Valens Escute esta e outras músicas enquanto navega no Cifras

Autor:

Formatação

colunas A+ A- cores

Nível

Iniciante

Nível: Iniciante

Transcrição

enviada por europeu


  Intro Riff As Played In The Movie "La Bamba": 

e||--------------------------------------------------------| 
b||--------------------------------------------------------| 
g||----------------------2--0------------------------------| 
d||-------------2-----3--------------0--3--3--2--0---------| 
a||----0--2--3-----3--------------2------------------------| 
e||-3--------------------------3---------------------------| 

        
e||--------------------------------------------------------| 
b||*------------------------------------------------------*| 
g||-------------2--0--------------------------------0--2--0| 
d||----2-----3--------------0--3--3--2-----2-----3---------| 
a||*3-----3--------------2--------------3-----3-----------*| 
e||--------------------3-----------------------------------| 
   "para bailar la bamba"...       Repeat Above -> 


End Solo 

-0-----0-1-----1-|3--------3-1-0---|0-----0-1-----1-|3-------3-1-0--------| 
-----1-------1---|-------3-------3-|----1-------1---|----0-3-------3------| 
---0-------2-----|--0--------------|--0-------2-----|--0------------------| 
-----------------|-----------------|----------------|---------------------| 
-----------------|-----------------|----------------|---------------------| 
-----------------|-----------------|----------------|---------------------| 

-0-----0-1-----1-|3-------3-1-0---|0-----0-1-----1-|3---------0-----------| 
-----1-------1---|----0-3-------3-|----1-------1---|------1---------------| 
---0-------2-----|--0-------------|--0-------2-----|----0-----------------| 
-----------------|----------------|----------------|----------------------| 
-----------------|----------------|----------------|----------------------| 
-----------------|----------------|----------------|----------------------| 

---3---3-5--5---|--3---3-3---1--|0-0---0---------|--------1-----1-|0--------------| 
----------------|---------------|--------1-------|----0-3-----3---|----1----------| 
-0--------------|0--------------|------------2---|0---------------|------0-2---2--| 
----------------|---------------|----------------|----------------|---------------| 
----------------|---------------|----------------|----------------|---------------| 
----------------|---------------|----------------|----------------|---------------| 

-----------------|--0-------------|----------------|--0---------------| 
---3-0-3-0-3-0-3-|1---3-1-0-3-1---|----0-3-----0-3-|1---3-1-0-3-1-----| 
-0---------------|--------------2-|0-------2-------|--------------2-0-| 
-----------------|----------------|----------------|------------------| 
-----------------|----------------|----------------|------------------| 
-----------------|----------------|----------------|------------------| 

-1-1-1---1---1-|--0-0-0---0---0-|--1-1-1---1---1-|--0-0-0---0---0-|----------0---| 
-------0-------|--------1-------|--------0-------|--------1-------|------1-------| 
-----------2---|0-----------2---|0-----------2---|0-----------2---|0---0---------| 
---------------|----------------|----------------|----------------|--------------| 
---------------|----------------|----------------|----------------|--------------| 
---------------|----------------|----------------|----------------|--------------| 

---3---5-5---5---|3------3-3---5-7-|8-8---8-8/10---10---|10-10---7-7--10-10-| 
-----------------|-----------------|--------------------|-------------------| 
-0---------------|-----------------|--------------------|-------------------| 
-----------------|-----------------|--------------------|-------------------| 
-----------------|-----------------|--------------------|-------------------| 
-----------------|-----------------|--------------------|-------------------| 

-8-8-10-10---8-10---|7-7-10-10-7-7-101010|10---8888---101010|10---7777---101010| 
--------------------|--------------------|------------------|------------------| 
--------------------|--------------------|------------------|------------------| 
--------------------|--------------------|------------------|------------------| 
--------------------|--------------------|------------------|------------------| 
--------------------|--------------------|------------------|------------------| 

10---8888---101010|10---7777---101010|8-8---8-7---5---|3-3---3-3---1---| 
------------------|------------------|----------------|----------------| 
------------------|------------------|----------------|----------------| 
------------------|------------------|----------------|----------------| 
------------------|------------------|----------------|----------------| 
------------------|------------------|----------------|----------------| 

-0-0---0---------|--1-----1-----1-|--0-----0-----0-|--1-----1-----1---|----| 
---------1-------|------0---------|------1---------|------0-----------|----| 
-------------2---|0-----------2---|0-----------2---|0-----------2-----|0---| 
-----------------|----------------|----------------|------------------|----| 
-----------------|----------------|----------------|------------------|----| 
-----------------|----------------|----------------|------------------|----| 
			(fade out) 

Alternate Version 

-----------------------------------------------------------------------| 
-5--5-6--6-8---865--5--5-6--6-8---865-5--5-6--68---865--5--56--68----5-| 
---5----5-----7---7---5----5----47---7--5----5---47---7---5---5----5---| 
--5----7----5--------5----7----5-------5----7---5--------5---7----5----| 
-----------------------------------------------------------------------| 
-----------------------------------------------------------------------| 

-----------------------------------------------------------------------| 
--8-810-10--8-88-6-55-5--------6--65-----------------5-----------------| 
-----------------------5-----47--7---5------7474747-5-75475---47--475--| 
-5---------5-------------7-5----------57-7-5---------------75---7------| 
-----------------------------------------------------------------------| 
-----------------------------------------------------------------------| 


-----------------------------------------------------------------------| 
-5-------666-6-6--555-5-5--666-6-6--555-5-5---5--8-1010-10-8-88--------| 
--75475-----4--------5--------4--------5----5--------------------------| 
-------75-----7-5------7-5------7-5------7-5----5----------------------| 
-----------------------------------------------------------------------| 
-----------------------------------------------------------------------| 


---788-88/10-10-1010-77--1010881010--810--77101077-10101010-8888-10101010-7777---| 
-10------------------------------------------------------------------------------| 
---------------------------------------------------------------------------------| 
---------------------------------------------------------------------------------| 
---------------------------------------------------------------------------------| 
---------------------------------------------------------------------------------| 


-10101010-8888-10101010-7777---1010108-8--87---------------------------------------------------| 
---------------------------------------------10-88-88-6-55-5-----6---6---6-5--5---5--6--6--6---| 
------------------------------------------------------------5-------4--------5---------4-------| 
--------------------------------------------------------------7-5-------7-5------7--5-----7--5-| 
-----------------------------------------------------------------------------------------------| 
-----------------------------------------------------------------------------------------------| 

  

top cifras ritchie valens
top cifras rock clássico
ver mais cifras desse artista var letras desse artista
Top cifras » Top artistas »
Anuncie no Cifras Termos de Uso Política de Privacidade Material de DivulgaçãoFale Conosco
Petaxxon Comunicação Online
Cifras.com.br - Melhor e mais completo site de cifras e tablaturas do Brasil
Mais de 1 milhão de cifras cadastradas desde 2003
As informações contidas no Cifras.com.br são colaborações de seus usuários e podem conter erros, sendo assim, não se responsabiliza sobre nenhuma destas.
R7 Música
close
 
redimensionar