» Letras de músicas » Notícias » Video Aulas » Guitar Pro » Gospel
Roupa Nova

Roupa Nova

Whisky A Go-Go (solo final)

ouvir música
ouvir música
enviado por
enviada por:
karollmoure
cifra enviada
sem correções
Cifras Cancelar Versão de Impressão
cifras

Roupa Nova - Whisky A Go-Go (solo final)

Tom:

  Solo do final da música Whisky a Go-Go (RoupAcústico) 
Os riffs são feitos juntos. Termina tocando o acorde E. 
 
 
Violão 1: 
 
E|-4\2-0-2-0---------------0-| 
B|-----------2-0-----------0-| 
G|---------------1---------1-| 
D|------------------2h4p2--2-| 
A|-------------------------2-| 
E|-------------------------0-| 
 
 
Violão 2: 
 
E|-0-----------------------0-| 
B|---0-----0---------------0-| 
G|-----1-----1-------------1-| 
D|-------2-----2--4-2h4h2--2-| 
A|-------------------------2-| 
E|-------------------------0-| 
 
Por: Karoll Moure 
karoll_moure@msn.com 

  

top 5 | roupa nova
top pop music
Outras músicas do artista letras do(a) Roupa Nova
Top cifras » Top artistas »
Anuncie Termos de Uso Política de Privacidade Material de DivulgaçãoFale Conosco
Petaxxon Comunicação Online
Cifras.com.br - Melhor e mais completo site de cifras e tablaturas do Brasil
Mais de 1 milhão de acordes de músicas cadastradas desde 2003
As informações contidas no nosso site são colaborações de seus usuários e podem conter erros, sendo assim, não nos responsabilizamos sobre nenhuma destas.
R7 Música
close
menos
mais
close
Cor dos acordes:

Cor da letra:

 

save
close
close
 
redimensionar