» Cifras.com.br » Letras de músicas » Notícias » TV Cifras » Guitar Pro » Gospel
Logo Cifras.com.br
Santana

Santana
Europa

Escute esta músicas

Ano: 1990
Album: Ultimate Santana
Autor: (Coster / Santana)

Tom

Formatação

colunas A+ A- cores

Instrumento

cifras tablaturaver outros instrumentos

Nível

Expert

Nível: Expert

Transcrição

anônimo


corrigida por Jimrhill8s23

      
   
   
   
   
                            Bb7sus4       Bb7                         Ebmaj7   
E|---8-10-10h11-10---8----||------------|------8-8h10-8------------|----------|   
B|-8-------------------11-||-8h9~~~~~~~~|-9-11-----------11--------|----------|   
G|------------------------||------------|----------------------10/-|12~~~~~~~~|   
D|------------------------||------------|--------------------------|----------|   
A|------------------------||------------|--------------------------|----------|   
E|------------------------||------------|--------------------------|----------|   
   
  Abmaj7                    G7sus4         G7   
E|-------------------------|--------------|--------------------------|   
B|-8-9-11-11/13-11---9-8---|----8---------|-----8-9-9h11-9-8---------|   
G|-----------------------8/|10----8-10~~~~|~~10--------------10-8~~~~|   
D|-------------------------|--------------|--------------------------|   
A|-------------------------|--------------|--------------------------|   
E|-------------------------|--------------|--------------------------|   
   
  Cm                                                          Bb7sus4   
E|---------------------------|-8-----8--10-10-11--10---8-----|------------|   
B|---------------------------|-8--8-----------------------11-|-8-9~~~~~~~~|   
G|-10p8----------------------|-8-----------------------------|------------|   
D|------10-8-----------------|-------------------------------|------------|   
A|-----------108-6-8/10-6---|-------------------------------|------------|   
E|-------------------------8-|-------------------------------|------------|   
   
  Bb7                       Ebmaj7     Abmaj7                    G7sus4   
E|------8-8-10-8----------|----------|-------------------------|------------|   
B|-9-11-----------11------|----------|-8-9-11-8/13-11-9-8------|-8-10~~~~~~~|   
G|---------------------10/|12~~~~~~~-|--------------------8/10-|------------|   
D|------------------------|----------|-------------------------|------------|   
A|------------------------|----------|-------------------------|------------|   
E|------------------------|----------|-------------------------|------------|   
   
  G7                       Cmaj7                  Fm7    B7   
E|------------------------|---------|-------13B-||13B---|-10-11-13-13/16--------|   
B|----8-9-9h11-9-8h9p8----|---------|----13-----||------|--------------------11-|   
G|-10------------------10/|12~~~~~~-|-12--------||------|-----------------12----|   
D|------------------------|---------|-----------||------|-----------------------|   
A|------------------------|---------|-----------||------|-----------------------|   
E|------------------------|---------|-----------||------|-----------------------|   
   
  Ebmaj7                           Abmaj7   
E|-10-13-13p11-13B----13-11-13p11-|-11h13---13B-B--13B-13)1(11----|   
B|--------------------------------|----------------------------13-|   
G|--------------------------------|-------------------------------|   
D|--------------------------------|-------------------------------|   
A|--------------------------------|-------------------------------|   
E|--------------------------------|-------------------------------|   
   
  G7sus4                            G7                    Cm   
E|-13p11p10--10h11p10-----------|-11B-11p8---------------|----------------------|   
B|------------------------------|----------11-8----------|-8--------------------|   
G|---------------------12p10p87|---------------10)1(8---|---8------------------|   
D|------------------------------|----------------------10|-----10----8----------|   
A|------------------------------|------------------------|------------108-6----|   
E|------------------------------|------------------------|-------------------8-8|   
   
              B7sus4                B7                   Ebmaj7   
E|-8---------|---------------------|--------------------|-------------------|   
B|-8---------|------8----------8---|-----8--------------|-7/8-11---7/8-11---|   
G|-8-----7-8-|-8h10-------8h10-----|8h10-------10-8-10-8|-------------------|   
D|----10-----|----------8---------8|---------8----------|--------8--------8-|   
A|-----------|---------------------|--------------------|-------------------|   
E|-----------|---------------------|--------------------|-------------------|   
   
  Abmaj7                                G7sus4   
E|--------------8--------8-------------|--------------------|   
B|-8-11-11-8-11---11-11B---11----------|-----8--------8-----|   
G|----------------------------10)1(8---|8-10-------10-------|   
D|-----------------------------------10|---------10-------10|   
A|-------------------------------------|--------------------|   
E|-------------------------------------|--------------------|   
   
  G7                             Cm   
E|------8-----------------------|---------------------------|-----------------|   
B|----8---11-8-------------8----|---------------------------|-----------------|   
G|-10B--------10)1/2(8---10--8~~|~~~~~~10p8-----------------|--------7--8-----|   
D|---------------------10-------|----------10-8-------------|----/10-------10-|   
A|------------------------------|---------------108-6-10-6-|-----------------|   
E|------------------------------|---------------------------|-8---------------|   
   
  B7sus4                  B7                    Ebmaj7   
E|-----------------------|---------------------|----------------------|   
B|------8----------8-----|------8--------------|-7/8-11----7/8--11----|   
G|-8h10-------8h10-------|-8h10------10-8-10-8-|----------------------|   
D|----------8----------8-|---------8-----------|----------8---------8-|   
A|-----------------------|---------------------|----------------------|   
E|-----------------------|---------------------|----------------------|   
   
  Abmaj7                             G7sus4   
E|--------------8--------8----------|------8------------------------------|   
B|-8-11-11p8h11---11-11B---11-8-----|----8---11-8-----------8------8------|   
G|------------------------------10B-|-10----------10)1(8------8h10---8~~~~|   
D|----------------------------------|--------------------10---------------|   
A|----------------------------------|-------------------------------------|   
E|----------------------------------|-------------------------------------|   
   
  G7                               Cmaj7   
E|----------8---------------------|------------------------------------|   
B|--------8---11-8----------------|------------------------------------|   
G|~~~~10B----------10)1(8----8-10/|12~~~~--------------1212/14-12-1214-|   
D|------------------------10------|------------1012/14-----------------|   
A|--------------------------------|------10/12-------------------------|   
E|--------------------------------|------------------------------------|   
   
                        Fm7    B7                     Ebmaj7   
E|----------------13B-||-13B--|13-13I1(-11-13-11-13B-|-13)1(13p11-13-11h13-|   
B|------------13------||------|----------------------|---------------------|   
G|-12~~~~-12----------||------|----------------------|---------------------|   
D|--------------------||------|----------------------|---------------------|   
A|--------------------||------|----------------------|---------------------|   
E|--------------------||------|----------------------|---------------------|   
   
  Abmaj7          G7sus4                        G7   
E|-13B-13B-13p11-|-13)1/2(13-11-13p1110h11p10-|-11)1(11-8----------------|   
B|---------------|-----------------------------|-----------11-8-----------|   
G|---------------|-----------------------------|----------------10)1(8----|   
D|---------------|-----------------------------|-----------------------10-|   
A|---------------|-----------------------------|--------------------------|   
E|---------------|-----------------------------|--------------------------|   
   
  Cm7              Fm7              Cm7                Fm7   
E|----------------|----------------|------------------|----------------------|   
B|-8--------------|----------------|----8-8---8-11-9~~|~~8-11-9~~8-----------|   
G|---8------------|----8-8~~~~~~---|------------------|-----------10/1210-8-|   
D|-----10~~~~~~-8-|-10-----------8-|-10---------------|----------------------|   
A|----------------|----------------|------------------|----------------------|   
E|----------------|----------------|------------------|----------------------|   
   
                   Cm7                    Fm7   
E|----------------|----------------------|----11---------8-11-10h11p10p8-|   
B|----------------|----8-8----8h11/13-13-|-13----------8-----------------|   
G|----10bbp8------|----------------------|-------------------------------|   
D|-10--------10-8-|-10-------------------|-------------------------------|   
A|----------------|----------------------|-------------------------------|   
E|----------------|----------------------|-------------------------------|   
   
  Cm7   
E|-11-10h11p10p8--11-10)1/2(10p8-11-10p8-11-10h11p10p8-11p10p8-11)1(11-|   
B|---------------------------------------------------------------------|   
G|---------------------------------------------------------------------|   
D|---------------------------------------------------------------------|   
A|---------------------------------------------------------------------|   
E|---------------------------------------------------------------------|   
   
  Fm7                                     Cm7   
E|-11p10p8-11p10p8-----------------11-13B|-13--13B-13B-|   
B|-----------------9p8----------13-------|-------------|   
G|---------------------10p8--------------|-------------|   
D|--------------------------10-----------|-------------|   
A|---------------------------------------|-------------|   
E|---------------------------------------|-------------|   
        Bend here (hold this sound). Bring down here   
  Fm7           *      Cm7            Fm7        *     Cm7   
E|-13)1()1(B--13)1----|--------------|-----------(-13-|11-11-11-11-11-11-11-11-|   
B|--------------------|--------------|----------------|------------------------|   
G|--------------------|--------------|----------------|------------------------|   
D|--------------------|--------------|----------------|------------------------|   
A|--------------------|--------------|----------------|------------------------|   
E|--------------------|--------------|----------------|------------------------|   
   
  Fm7                               Cm7   
E|-11-8-8-----8--------------------|-----------------------------------|   
B|--------11B---11-8---------------|---8-------------------------------|   
G|-------------------10B-10-8----8-|-10--8----------------------7-8-10-|   
D|----------------------------10---|-------10-8-----------8-1010-------|   
A|---------------------------------|-----------108-6-8/10-------------|   
E|---------------------------------|-----------------------------------|   
   
  Fm7                     Cm7                         Fm7   
E|-----------------------|---------------------------|--------------------------|   
B|-8----8----11-9-8-9-8~~|~~9-8---------8------------|-8----8----11-9-8-9-6/8~~~|   
G|---10---10-------------|------10-8-10~~~~---7-8-10-|---10---10----------------|   
D|-----------------------|-----------------10--------|--------------------------|   
A|-----------------------|---------------------------|--------------------------|   
E|-----------------------|---------------------------|--------------------------|   
   
  Cm7                            Fm7   
E|------------------------------|---------------------------|   
B|-9-8---------8----------------|-8----8----11-9-8-9-6/8~~~~|   
G|-----10-8-10~~~~-------7/8-10-|---10---10-----------------|   
D|--------------------10--------|---------------------------|   
A|-----------------10-----------|---------------------------|   
E|------------------------------|---------------------------|   
   
  Cm7                          Fm7                          Cm7   
E|----------------------------|----------------------------|-------------------|   
B|~~8---------8~~~~-----------|-8----8----11-9-8-8h9-------|--------8-11/13-13-|   
G|----10-8-10----------7-8-10-|---10---10------------10/12-|-12----------------|   
D|------------------10--------|----------------------------|-------------------|   
A|----------------------------|----------------------------|-------------------|   
E|----------------------------|----------------------------|-------------------|   
   
  Fm9/B                   Cm7                    Fm9/B Cm7   
E|----11~~~~---11--1113B-|13--13B-13B-13B-13)1-|-----|(11-11-11-11-13)(11-13-11|   
B|-13------------13------|---------------------|-----|--------------------------|   
G|-----------------------|---------------------|-----|--------------------------|   
D|-----------------------|---------------------|-----|--------------------------|   
A|-----------------------|---------------------|-----|--------------------------|   
E|-----------------------|---------------------|-----|--------------------------|   
   
  Fm9/B                      Cm7   
E|15-18-18-15-18B-18B-18B-15|---15151815---15151815---15151815---15151815----   
B|--------------------------|18B--------18B--------18B--------18B--------18B-   
G|--------------------------|------------------------------------------------   
D|--------------------------|------------------------------------------------   
A|--------------------------|------------------------------------------------   
E|--------------------------|------------------------------------------------   
   
                Fm9/B                     Cm7   
E|151815--1518B|18B-18-18)1(15---18-18-18|---1818---1818---1818---18-18-18-18-18|   
B|------18-----|--------------18B--------|18B----18B----18B----18B--------------|   
G|-------------|-------------------------|--------------------------------------|   
D|-------------|-------------------------|--------------------------------------|   
A|-------------|-------------------------|--------------------------------------|   
E|-------------|-------------------------|--------------------------------------|   
   
  Fm9/B                  Cm7                  Fm9/B   
E|-----18-----18-----18-|-----18----11B--11B-|11B11-8---------------------------   
B|18I1(--18I1(--18I1(---|18I1(--18-----------|-------11-8-----------------------   
G|----------------------|--------------------|-----------10)1(8--10-8-----------   
D|----------------------|--------------------|-----------------10----10-8-------   
A|----------------------|--------------------|---------------------------108-6-   
E|----------------------|--------------------|---------------------------------8   
   
               Cm7   
E|----8-------|--------------------------------------------11)1(-|   
B|------------|----8-11p8---8-11p8---8-11B---11-8----------------|   
G|-10B---10p8-|-10B------10B------10B-------------108-----------|   
D|------------|-----------------------------------------9--------|   
A|------------|--------------------------------------------------|   
E|------------|--------------------------------------------------|   
   
  Fm9/B                                      Cm7   
E|11-8--------------------------------------|-----------------------------------|   
B|-----11-8---------------------------------|-----------------------------------|   
G|----------10)1(8-8------------------------|----------------------8-10)1(10p8--|   
D|-------------------10-8-----------------8-|-8-8-8-8-8-8-8-8-8-10------------10|   
A|------------------------10-8---------8B---|-----------------------------------|   
E|-----------------------------11-8-11------|-----------------------------------|   
   
  Fm9/B                           Cm7                   Fm9/B   
E|------------------------18-18|20B-20B-20B-20Bbb-20Bbb|20Bbb-202020202020--11B|   
B|--16-16-18--18/20-20-20------|-----------------------|------------------------|   
G|17---------------------------|-----------------------|------------------------|   
D|-----------------------------|-----------------------|------------------------|   
A|-----------------------------|-----------------------|------------------------|   
E|-----------------------------|-----------------------|------------------------|   
   
  Cm7                                           Fm9/B   
E|11B-11B-11p8---------------------------------|-----------------------------|   
B|-------------11p8----------------------------|-8------------------15-16-18-|   
G|------------------10)1(8---10-8-------7-8-10-|-----------------17----------|   
D|-------------------------10-----10-10--------|----10-10~~~~~~--------------|   
A|---------------------------------------------|-----------------------------|   
E|---------------------------------------------|-----------------------------|   
   
  Cm7                                    Fm9/B   
E|-18/15--------------------------------|------------------------------|   
B|--------------------------------------|-8-------------------15-16-18-|   
G|-----------17p15h17p15~~~-----7-8-10-|------------------17----------|   
D|-----------------------------10-------|----10-10~~~~~~---------------|   
A|--------------------------------------|------------------------------|   
E|--------------------------------------|------------------------------|   
   
  Cm7                                    Fm9/B   
E|-15-----------------------------------|------------------------------|   
B|--------------------------------------|-8-------------------15-16-18-|   
G|------17-17~~~~15-17-15-------7-8-10-|------------------17----------|   
D|----------------------------10--------|----10-10~~~~~~---------------|   
A|--------------------------------------|------------------------------|   
E|--------------------------------------|------------------------------|   
   
  Cm7                                   Fm9/B   
E|-----18---------18-18-18-18-18-18-18-|---18-18---18-18---18-18---18---18-18---|   
B|-18B----18--18B----------------------|18B-----18B-----18B-----18B--18B-----18B|   
G|-------------------------------------|----------------------------------------|   
D|-------------------------------------|----------------------------------------|   
A|-------------------------------------|----------------------------------------|   
E|-------------------------------------|----------------------------------------|   
   
  Cm7                                 Fm9/B   
E|-18-18---18-18---18-18-18-18-18----|-------18------18------18-|   
B|------18B-----18B--------------18B-|-18I1(---18I1(---18I1(----|   
G|-----------------------------------|--------------------------|   
D|-----------------------------------|--------------------------|   
A|-----------------------------------|--------------------------|   
E|-----------------------------------|--------------------------|   
   
   
E|-------18-------------------------|------------------------------|------------|   
B|-18I1(----18-----16B----15-17-18-|-18B--------------------------|-8----------|   
G|----------------------17----------|------17-17~~~~~17----7-8-10-|------------|   
D|----------------------------------|--------------------10--------|------------|   
A|----------------------------------|------------------------------|----10--10--|   
E|----------------------------------|------------------------------|------------|   

  

top cifras santana
top cifras rock'n roll
ver mais cifras desse artista

letras do(a) Santana

Top cifras » Top artistas »
Anuncie no Cifras Termos de Uso Política de Privacidade Material de DivulgaçãoFale Conosco
Petaxxon Comunicação Online
Cifras.com.br - Melhor e mais completo site de cifras e tablaturas do Brasil
Mais de 1 milhão de cifras cadastradas desde 2003
As informações contidas no Cifras.com.br são colaborações de seus usuários e podem conter erros, sendo assim, não se responsabiliza sobre nenhuma destas.
R7 Música
close
 
redimensionar