» Letras de músicas » Notícias » Video Aulas » Guitar Pro » Gospel
Sérgio Reis

Sérgio Reis

Menino da Porteira (tablatura)

ouvir música
ouvir música
enviado por
anônimo
cifra enviada
sem correções
Cifras Cancelar Versão de Impressão
cifras

Sérgio Reis - Menino da Porteira (tablatura)

Tom:

   
  I     e-00-00-00--9-0-0-0--2-4-4-2-0----------- 
   N    B-00-00-00--8-0-0-0--1-3-3-1-0-1-0-0-1-0- 
    T   G------------------------------2-0-0-2-0- (2x) 
     R  D---------------------------------------- 
      O A---------------------------------------- 
        E---------------------------------------- 
solo 
e---------------------0-0-------4-4-4-4-4-2-4-4-4- 
B-0-0-0-0-0---0-0-1-1-0-0-0-0---3-3-3-3-3-1-3-3-3- 
G-0-0-0-0-0-2-0-0-2-2-----0-0-2------------------- 
D-----------4-----------------4------------------- 
A------------------------------------------------- 
E------------------------------------------------- 
 
e-5-7-00-00-9-9---------------------0-0-0----4-4-4-4-4 
B-5-7-00-00-8-8-0-0-0-0-0---0-0-1-1-0-0-0-0--3-3-3-3-3 
G---------------0-0-0-0-0-2-0-0-2-2-------0-2--------- 
D-------------------------4-----------------4--------- 
A----------------------------------------------------- 
E----------------------------------------------------- 
 
e-4-4-0-0-0-2-0-------2-2-2-2-2-0-2-2-2-0-2-4-5-4-4-4--4- 
B-3-3-0-0-0-1-0-1-1-0-1-1-1-1-1-0-1-1-1-0-1-3-5-3-3-3--3- 
G---------------2-2-0------------------------------------ 
D-------------------------------------------------------- 
A-------------------------------------------------------- 
E-------------------------------------------------------- 
 
e-3-3-3-2-3-3-3-7-7-00-00-9-9---------------------0-0----- 
B-4-4-4-1-4-4-4-5-7-00-00-8-8-0-0-0-0-0---0-0-1-1-0-0-0-0- 
G-----------------------------0-0-0-0-0-2-0-0-2-2-----0-0- 
D---------------------------------------4----------------- 
A--------------------------------------------------------- 
E---------------------------------------------------------     /| 
                                                                | 
e---4--4-4-4-4-4-4-4-0-0-0-2-0----------------------------      | 
B---3-13-3-3-3-3-3-3-0-0-0-1-0-1-1-0----------------------      | 
G-2----------------------------2-2-0----------------------      | 
D-4-------------------------------------------------------      | 
A---------------------------------------------------------      | 
E---------------------------------------------------------      | 
VOLTA NA INTRO--------------------------------------------------| 
 
 
 
_______________________________________________________ 
Contribuição: Eduardo Dias de Souza(duguns@terra.com.br) 

  

top 5 | sérgio reis
top sertanejo
Outras músicas do artista letras do(a) Sérgio Reis
Top cifras » Top artistas »
Anuncie Termos de Uso Política de Privacidade Material de DivulgaçãoFale Conosco
Petaxxon Comunicação Online
Cifras.com.br - Melhor e mais completo site de cifras e tablaturas do Brasil
Mais de 1 milhão de acordes de músicas cadastradas desde 2003
As informações contidas no nosso site são colaborações de seus usuários e podem conter erros, sendo assim, não nos responsabilizamos sobre nenhuma destas.
R7 Música
close
menos
mais
close
Cor dos acordes:

Cor da letra:

 

save
close
close
 
redimensionar