» Cifras.com.br » Letras de músicas » Notícias » TV Cifras » Guitar Pro » Gospel

Início » » Seriados e Desenhos » »

pegasus fantasy

Seriados e Desenhos

pegasus fantasy

Seriados e Desenhos Escute esta e outras músicas enquanto navega no Cifras

Autor:

Tom

Formatação

colunas A+ A- cores

Instrumento

cifras tablaturaver outros instrumentos

Nível

Expert

Nível: Expert

Transcrição

enviada por bearshare


    e|-----------------------------------------------| 
  B|-----------------------------------------------| 
  G|--------0---------------------------------------| 
  D|-----1-----3---0-------------1--0------------------| 
  A|--3---------------1--------3---------1------------| 
  E|---------------------4-------------------3-----| 


  e|-----------------------------------------------| 
  B|-----------------------------------------------| 
  G|----------0------------1-------------------------| 
  D|------1------3--0---------------------------------| 
  A|---3---------------1-----------------------1------| 
  E|----------------------------------------------| 



isso voceis repetem 2 vezes!! 

  

Top cifras » Top artistas »
Anuncie no Cifras Termos de Uso Política de Privacidade Material de DivulgaçãoFale Conosco
Petaxxon Comunicação Online
Cifras.com.br - Melhor e mais completo site de cifras e tablaturas do Brasil
Mais de 1 milhão de cifras cadastradas desde 2003
As informações contidas no Cifras.com.br são colaborações de seus usuários e podem conter erros, sendo assim, não se responsabiliza sobre nenhuma destas.
R7 Música
close
 
redimensionar