» Cifras.com.br » Letras de músicas » Notícias » TV Cifras » Guitar Pro » Gospel

Início » Gospel » Shirley Carvalhaes » »

Há Uma Saída

Shirley Carvalhaes

Há Uma Saída

Shirley Carvalhaes Escute esta e outras músicas enquanto navega no Cifras

Autor:

Formatação

colunas A+ A- cores

Nível

Avançado

Nível: Avançado

Transcrição

enviada por douglas_php


  Solo inicial da Musica 

e----------------------------------------------------- 
B--------------------------------------------15--17b-- 
G--9b-9-7-7/9--9b-9-7-----9b-9-7-----7--9/14---------- 
D---------------------7/9--------5/7------------------ 
A----------------------------------------------------- 
E----------------------------------------------------- 

e------------------------------------------17b-17----- 
B--17-15-17-15-17-15-17--17b-17b-15--15-17------------ 
G----------------------------------------------------- 
D----------------------------------------------------- 
A----------------------------------------------------- 
E----------------------------------------------------- 

e----------------------------------------------------- 
B--17/15-15-17b---17b-17-15-17b-17-15-17~------------- 
G----------------------------------------------------- 
D----------------------------------------------------- 
A----------------------------------------------------- 
E----------------------------------------------------- 


Este solo esta no tom original da Musica... 


  

top cifras shirley carvalhaes
top cifras gospel
ver mais cifras desse artista var letras desse artista
Top cifras » Top artistas »
Anuncie no Cifras Termos de Uso Política de Privacidade Material de DivulgaçãoFale Conosco
Petaxxon Comunicação Online
Cifras.com.br - Melhor e mais completo site de cifras e tablaturas do Brasil
Mais de 1 milhão de cifras cadastradas desde 2003
As informações contidas no Cifras.com.br são colaborações de seus usuários e podem conter erros, sendo assim, não se responsabiliza sobre nenhuma destas.
R7 Música
close
 
redimensionar