» Cifras.com.br » Letras de músicas » Notícias » TV Cifras » Guitar Pro » Gospel
Logo Cifras.com.br

Início » Heavy Metal » Slipknot »

Psychosocial

Slipknot

Slipknot
Psychosocial

Escute esta músicas

Formatação

colunas A+ A- cores

Instrumento

cifras tablaturaver outros instrumentos

Nível

Iniciante

Nível: Iniciante

Transcrição

enviada por Acelot


corrigida por Acelot

  
Tuning: A  E  A  D  F#  B 

Intro: 

(Guitarra 1 - Parte 1) 

               H.A                          H.A 
B|---------------------------------------------------| 
F|---------------------------------------------------| 
D|---------------------------------------------------| 
A|-------------6~~--------------------------6~~------| 
E|---------------------------------------------------| 
A|-0--0--5p0-0------0--3h5-0--0-0-0-0-5p0-0----------| 
                      H.A 
B|---------------------------------------------------| 
F|---------------------------------------------------| 
D|---------------------------------------------------| 
A|--------------------6~~----------------------------| 
E|---------------------------------------------------| 
A|-0-3h5-----0-5p0-0-----0-3h5-0-0-5-5-5-5-6-6-6-6---| 

B|---------------------------------------------------| 
F|---------------------------------------------------| 
D|---------------------------------------------------| 
A|---------------------------------------------------| 
E|---------------------------------------------------| 
A|-8-8-8-8-7-7-7-7-----------------------------------| 
               H.A                          H.A 
B|---------------------------------------------------| 
F|---------------------------------------------------| 
D|---------------------------------------------------| 
A|-------------6~~--------------------------6~~------| 
E|---------------------------------------------------| 
A|-0--0--5p0-0------0--3h5-0--0-0-0-0-5p0-0----------| 
                      H.A 
B|---------------------------------------------------| 
F|---------------------------------------------------| 
D|---------------------------------------------------| 
A|--------------------6~~----------------------------| 
E|---------------------------------------------------| 
A|-0-3h5-----0-5p0-0-----0-3h5-0-0-5-5-5-5-6-6-6-6-| 

B|---------------------------------------------------| 
F|---------------------------------------------------| 
D|---------------------------------------------------| 
A|---------------------------------------------------| 
E|---------------------------------------------------| 
A|-8-8-8-8-7-7-7-7-5-5-5-5-6-6-6-6-8-8-8-8-7-7-7-7---| 

B|---------------------------------------------------| 
F|---------------------------------------------------| 
D|---------------------------------------------------| 
A|---------------------------------------------------| 
E|---------------------------------------------------| 
A|-5-5-5-5-6-6-6-6-8-8-8-8-7-7-7-7-5..-6..-8..-7..-5~| 

(Guitarra 2º Parte 2) 

B|---------------------------------------------------| 
F|---------------------------------------------------| 
D|---------------------------------------------------| 
A|---------------------------------------------------| 
E|-6-6-6-6-7-7-7-7-9-9-9-9-8-8-8-8-6..-7..-9..-8..-6~| 
A|---------------------------------------------------| 

(Parte 2 - 2x) 

     P.M.  . .       . .   . .       . .   . . 
B|---------------------------------------------------| 
F|---------------------------------------------------| 
D|---------------------------------------------------| 
A|-6-----5-----5h6-6-----5-----5h6-6-----5-----5h6---| 
E|-6-----5---0-5h6-6-----5-----5h6-6-----5-----5h6---| 
A|-6-0-0-5-0-0-5h6-6-0-0-5-0-0-5h6-6-0-0-5-0-0-5h6---| 
   P.M.. . . . . . 
B|---------------------------------------------------| 
F|---------------------------------------------------| 
D|---------------------------------------------------| 
A|---------------------------------------------------| 
E|-6-5-3-1-3-5-3-2-----------------------------------| 
A|-6-5-3-1-3-5-3-2-----------------------------------| 

Primeira Parte: 

       P.M.      . .   . .       . .   . . 
B|---------------------------------------------------| 
F|---------------------------------------------------| 
D|---------------------------------------------------| 
A|-6p5-----5h6-6-----5-----5h6-6-----5-----5h6-------| 
E|-6p5-----5h6-6-----5-----5h6-6-----5-----5h6-------| 
A|-6p5-0-0-5h6-6-0-0-5-0-0-5h6-6-0-0-5-0-0-5h6-------| 
   P.M.. . . . . . 
B|---------------------------------------------------| 
F|---------------------------------------------------| 
D|---------------------------------------------------| 
A|---------------------------------------------------| 
E|-6-5-3-1-3-5-3-2-----------------------------------| 
A|-6-5-3-1-3-5-3-2-----------------------------------| 

I did my time, and I want out! 
So abusive fate, 
It doesn't cut, this soul is not so vibrant. 

     P.M.  . .       . .   . .       . .   . . 
B|---------------------------------------------------| 
F|---------------------------------------------------| 
D|---------------------------------------------------| 
A|-6-----5-----5h6-6-----5-----5h6-6-----5-----5h6---| 
E|-6-----5-----5h6-6-----5-----5h6-6-----5-----5h6---| 
A|-6-0-0-5-0-0-5h6-6-0-0-5-0-0-5h6-6-0-0-5-0-0-5h6---| 
   P.M.. . . . . . 
B|---------------------------------------------------| 
F|---------------------------------------------------| 
D|---------------------------------------------------| 
A|---------------------------------------------------| 
E|-6-5-3-1-3-5-3-2-----------------------------------| 
A|-6-5-3-1-3-5-3-2-----------------------------------| 

The reckoning, the sickening. 
Back at you subversion. 
Pseudo-sacrosanct perversion 

     P.M.  . .       . .   . .       . .   . . 
B|---------------------------------------------------| 
F|---------------------------------------------------| 
D|---------------------------------------------------| 
A|-6-----5-----5h6-6-----5-----5h6-6-----5-----5h6---| 
E|-6-----5-----5h6-6-----5-----5h6-6-----5-----5h6---| 
A|-6-0-0-5-0-0-5h6-6-0-0-5-0-0-5h6-6-0-0-5-0-0-5h6---| 
   P.M.. . . . . . 
B|---------------------------------------------------| 
F|---------------------------------------------------| 
D|---------------------------------------------------| 
A|---------------------------------------------------| 
E|-6-5-3-1-3-5-3-2-----------------------------------| 
A|-6-5-3-1-3-5-3-2-----------------------------------| 
Go drill your deserts, go dig your graves! 
Then fill your mouth with all the money you will save. 

     P.M.  . .       . .   . .       . .   . . 
B|---------------------------------------------------| 
F|---------------------------------------------------| 
D|---------------------------------------------------| 
A|-6-----5-----5h6-6-----5-----5h6-6-----5-----5h6---| 
E|-6-----5-----5h6-6-----5-----5h6-6-----5-----5h6---| 
A|-6-0-0-5-0-0-5h6-6-0-0-5-0-0-5h6-6-0-0-5-0-0-5h6---| 
   P.M.. . . . . . 
B|---------------------------------------------------| 
F|---------------------------------------------------| 
D|---------------------------------------------------| 
A|---------------------------------------------------| 
E|-6-5-3-1-3-5-3-2-----------------------------------| 
A|-6-5-3-1-3-5-3-2-----------------------------------| 
Sinking in, getting smaller again. 
I'm done! It has begun, I'm not the only one! 



Primeiro Refrão: 
Ab5          Eb5       Bb5    G5 
    And the rain will kill us all. 
C5              Eb5     Ab5 
   If throw ourselves against the wall. 
     Eb5   Bb5       G5 
But no one else can see. 

The preservation of the martyr in me. 

Passagem 1: 
   P.M.    . .   . .       . .   . .       . .   . . 
B|---------------------------------------------------| 
F|---------------------------------------------------| 
D|---------------------------------------------------| 
A|---5h6-6-----5-----5h6-6-----5-----5h6-6-----5-----| 
E|-0-5h6-6-----5-----5h6-6-----5-----5h6-6-----5-----| 
A|-0-5h6-6-0-0-5-0-0-5h6-6-0-0-5-0-0-5h6-6-0-0-5-0-0-| 
       P.M.. . . . . . 
B|---------------------------------------------------| 
F|---------------------------------------------------| 
D|---------------------------------------------------| 
A|-5h6-----------------------------------------------| 
E|-5h6-6-5-3-1-3-5-3-2-------------------------------| 
A|-5h6-6-5-3-1-3-5-3-2-------------------------------| 
Psychosocial, Psychosocial, Psychosocial 

     P.M.  . .       . .   . .       . .   . . 
B|---------------------------------------------------| 
F|---------------------------------------------------| 
D|---------------------------------------------------| 
A|-6-----5-----5h6-6-----5-----5h6-6-----5-----5h6---| 
E|-6-----5-----5h6-6-----5-----5h6-6-----5-----5h6---| 
A|-6-0-0-5-0-0-5h6-6-0-0-5-0-0-5h6-6-0-0-5-0-0-5h6---| 
   P.M.. . . . . . 
B|---------------------------------------------------| 
F|---------------------------------------------------| 
D|---------------------------------------------------| 
A|---------------------------------------------------| 
E|-6-5-3-1-3-5-3-2-----------------------------------| 
A|-6-5-3-1-3-5-3-2-----------------------------------| 
Psychosocial, Psychosocial, Psychosocial 

Segunda Parte: 

       P.M.      . .   . .       . .   . . 
B|---------------------------------------------------| 
F|---------------------------------------------------| 
D|---------------------------------------------------| 
A|-6p5-----5h6-6-----5-----5h6-6-----5-----5h6-------| 
E|-6p5-----5h6-6-----5-----5h6-6-----5-----5h6-------| 
A|-6p5-0-0-5h6-6-0-0-5-0-0-5h6-6-0-0-5-0-0-5h6-------| 
   P.M.. . . . . . 
B|---------------------------------------------------| 
F|---------------------------------------------------| 
D|---------------------------------------------------| 
A|---------------------------------------------------| 
E|-6-5-3-1-3-5-3-2-----------------------------------| 
A|-6-5-3-1-3-5-3-2-----------------------------------| 
Go! There are cracks in the road we laid. 
But we're the temple fell, the secret death's gone mad. 

     P.M.  . .       . .   . .       . .   . . 
B|---------------------------------------------------| 
F|---------------------------------------------------| 
D|---------------------------------------------------| 
A|-6-----5-----5h6-6-----5-----5h6-6-----5-----5h6---| 
E|-6-----5-----5h6-6-----5-----5h6-6-----5-----5h6---| 
A|-6-0-0-5-0-0-5h6-6-0-0-5-0-0-5h6-6-0-0-5-0-0-5h6---| 
   P.M.. . . . . . 
B|---------------------------------------------------| 
F|---------------------------------------------------| 
D|---------------------------------------------------| 
A|---------------------------------------------------| 
E|-6-5-3-1-3-5-3-2-----------------------------------| 
A|-6-5-3-1-3-5-3-2-----------------------------------| 
This is nothing new, but when we kill it all? 
The hate was all we had! 

     P.M.  . .       . .   . .       . .   . . 
B|---------------------------------------------------| 
F|---------------------------------------------------| 
D|---------------------------------------------------| 
A|-6-----5-----5h6-6-----5-----5h6-6-----5-----5h6---| 
E|-6-----5-----5h6-6-----5-----5h6-6-----5-----5h6---| 
A|-6-0-0-5-0-0-5h6-6-0-0-5-0-0-5h6-6-0-0-5-0-0-5h6---| 
   P.M.. . . . . . 
B|---------------------------------------------------| 
F|---------------------------------------------------| 
D|---------------------------------------------------| 
A|---------------------------------------------------| 
E|-6-5-3-1-3-5-3-2-----------------------------------| 
A|-6-5-3-1-3-5-3-2-----------------------------------| 
Who needs another mess, we could start over. 
Just look me in the eyes and say I'm wrong! 

     P.M.  . .       . .   . .       . .   . . 
B|---------------------------------------------------| 
F|---------------------------------------------------| 
D|---------------------------------------------------| 
A|-6-----5-----5h6-6-----5-----5h6-6-----5-----5h6---| 
E|-6-----5-----5h6-6-----5-----5h6-6-----5-----5h6---| 
A|-6-0-0-5-0-0-5h6-6-0-0-5-0-0-5h6-6-0-0-5-0-0-5h6---| 
   P.M.. . . . . . 
B|---------------------------------------------------| 
F|---------------------------------------------------| 
D|---------------------------------------------------| 
A|---------------------------------------------------| 
E|-6-5-3-1-3-5-3-2-----------------------------------| 
A|-6-5-3-1-3-5-3-2-----------------------------------| 
Now there's only emptiness, burn elicit self threat 
I think we're done, I'm not the only one! 



Segundo Refrão: 
Ab5          Eb5       Bb5    G5 
    And the rain will kill us all. 
C5              Eb5     Ab5 
   If throw ourselves against the wall. 
     Eb5   Bb5       G5 
But no one else can see. 

The preservation of the martyr in me. 

Solo: 
B|---------------------------------------------------| 
F|---------------------------------------------------| 
D|---------------7-----------------------------------| 
A|--------7h8h10---10-8-7-------------7h8h10-7h8h10--| 
E|-6h8h10-----------------10-8-6h8h10----------------| 
A|---------------------------------------------------| 

B|---------------------------------------------------| 
F|--------------------8------------------------------| 
D|-------------7h8h10---10-8-7-------------7h8h10----| 
A|-10-8-7h8h10-----------------10-8-7h8h10-----------| 
E|---------------------------------------------------| 
A|---------------------------------------------------| 

B|----------------------------8----------------------| 
F|-------8-------------8h9h11---11-9-8---------------| 
D|-7h810---10-8-7h8h10-----------------10-8-7h8h10---| 
A|---------------------------------------------------| 
E|---------------------------------------------------| 
A|---------------------------------------------------| 

B|---------------8-------------8h10h11---------------| 
F|-8h9h11-8h9h11---11-9-8h9h11---------9h11h13-------| 
D|---------------------------------------------------| 
A|---------------------------------------------------| 
E|---------------------------------------------------| 
A|---------------------------------------------------| 

B|-10h11h13-13-11-10---------13-11-10---------10~~---| 
F|-------------------13-11-9----------13-11-9--------| 
D|---------------------------------------------------| 
A|---------------------------------------------------| 
E|---------------------------------------------------| 
A|---------------------------------------------------| 

B|-10h11p10p8-10~~--10h11p10p8-11/15--11--10--8--10~-| 
F|---------------------------------------------------| 
D|---------------------------------------------------| 
A|---------------------------------------------------| 
E|---------------------------------------------------| 
A|---------------------------------------------------| 

B|-10b11r10------------------------------------------| 
F|-------------8~-8b9r8------------------------------| 
D|-------------------------7~-7b8r7--8--7h8p7--------| 
A|--------------------------------------------10--8--| 
E|---------------------------------------------------| 
A|---------------------------------------------------| 

B|-10--11h13--11--10--11--10-----10--11/15-11--10--11| 
F|----------------------------11---------------------| 
D|---------------------------------------------------| 
A|---------------------------------------------------| 
E|---------------------------------------------------| 
A|---------------------------------------------------| 

B|-10h11p10-8--10--11--10~~--------------------------| 
F|---------------------------------------------------| 
D|----------------------------\8----7~~-8b10r8~-7b8~-| 
A|-------------------------------10------------------| 
E|---------------------------------------------------| 
A|---------------------------------------------------| 

B|---------------------------------------------------| 
F|---------------------------------------------------| 
D|---------------------------------------------------| 
A|------------10----------------10h12h13-10h12h13----| 
E|-8h10h11/13----13-11-10h11h13----------------------| 
A|---------------------------------------------------| 

B|---------------------------------------------------| 
F|---------------------------------------------------| 
D|-10----------------10h12h13-10h12h13-12h13p12p10---| 
A|----13-12-10h12h13---------------------------------| 
E|---------------------------------------------------| 
A|---------------------------------------------------| 

B|---------------------------------------------------| 
F|---------------------------------------------------| 
D|---------------------------------------------------| 
A|-13-12-12h13p12p10---------------------------------| 
E|-------------------13-11-11h13p11p10\8-11-10-------| 
A|---------------------------------------------------| 

B|---------------------------------------------------| 
F|---------------------------------------------------| 
D|---------------------------------------------------| 
A|---------------------------------------------------| 
E|-10h11p10p8\6-10-8-8h10p8p6~-----------------------| 
A|---------------------------------------------------| 

B|---------------------------------------------------| 
F|---------------------------------------------------| 
D|-/12~~-8--8--7h8p7-----8--7h8p7--------------------| 
A|-------------------10-----------7--8--7------------| 
E|-----------------------------------------8--6--3h5-| 
A|---------------------------------------------------| 

Ponte: 

The limits of the dead! (4x) 

(Guitarra 1) 
   P.M.   . .    . .   . . . .    . . . . 
B|---------------------------------------------------| 
F|---------------------------------------------------| 
D|---------------------------------------------------| (11x) 
A|---------------------------------------------------| 
E|---------------------------------------------------| 
A|-0-0----0-0----0-0---0-0-0-0----0-0-0-0------------| 
   P.M.   . .    . .   . . . . 
B|---------------------------------------------------| 
F|---------------------------------------------------| 
D|---------------------------------------------------| 
A|---------------------------------------------------| 
E|---------------------------------------------------| 
A|-0-0----0-0----0-0---0-0-0-0-----------------------| 

(Guitarra 2) 
   P.M.   .  .  . . . .  . . . 
B|---------------------------------------------------| 
F|---------------------------------------------------| 
D|---------------------------------------------------|  (3x) 
A|---------------------------------------------------| 
E|---------------------------------------------------| 
A|-0-4b6--0--0--0-0-0-0--0-0-0-2b3r2-----------------| 
   P.M.    .  .  . . . . 
B|---------------------------------------------------| 
F|---------------------------------------------------| 
D|---------------------------------------------------| 
A|---------------------------------------------------| 
E|---------------------------------------------------| 
A|-0--4b6--0--0--0-0-0-0-----------------------------| 

Terceira Parte: 

   P.M..   . .   . .       . .   . .       . .   . . 
B|---------------------------------------------------| 
F|---------------------------------------------------| 
D|---------------------------------------------------| 
A|-------6-----5-----5h6-6-----5-----5h6-6-----5-----| 
E|-0-5-0-6-----5-----5h6-6-----5-----5h6-6-----5-----| 
A|-0-5-0-6-0-0-5-0-0-5h6-6-0-0-5-0-0-5h6-6-0-0-5-0-0-| 
       P.M.. . . . . . 
B|---------------------------------------------------| 
F|---------------------------------------------------| 
D|---------------------------------------------------| 
A|-5h6-----------------------------------------------| 
E|-5h6-6-5-3-1-3-5-3-2-------------------------------| 
A|-5h6-6-5-3-1-3-5-3-2-------------------------------| 

Fate! Cannot catch this lie, (Psychosocial) 
I tried to tell you but, (Psychosocial) 
Your purple hearts are giving out. (Psychosocial) 

     P.M.  . .       . .   . .       . .   . . 
B|---------------------------------------------------| 
F|---------------------------------------------------| 
D|---------------------------------------------------| 
A|-6-----5-----5h6-6-----5-----5h6-6-----5-----5h6---| 
E|-6-----5-----5h6-6-----5-----5h6-6-----5-----5h6---| 
A|-6-0-0-5-0-0-5h6-6-0-0-5-0-0-5h6-6-0-0-5-0-0-5h6---| 
   P.M.. . . . . . 
B|---------------------------------------------------| 
F|---------------------------------------------------| 
D|---------------------------------------------------| 
A|---------------------------------------------------| 
E|-6-5-3-1-3-5-3-2-----------------------------------| 
A|-6-5-3-1-3-5-3-2-----------------------------------|
 
Can't stop the killing idea. (Psychosocial) 
If it's hunting season. (Psychosocial) 
Is this what you want? (Psychosocial) 
I'm not the only one! 



Terceiro Refrão 2x: 
Ab5          Eb5       Bb5    G5 
    And the rain will kill us all. 
C5              Eb5     Ab5 
   If throw ourselves against the wall. 
     Eb5   Bb5       G5 
But no one else can see. 

The preservation of the martyr in me. 

Final: 

(Guitarra 1) 
   P.M.. . . . . . . . . . . . . . 
B|---------------------------------------------------| 
F|---------------------------------------------------| 
D|---------------------------------------------------| 
A|-0-0-7-7-0-0-0-0-5-5-8-8-4-4-7-7-------------------| 
E|---------------------------------------------------| 
A|---------------------------------------------------| 
   P.M.. . . . . . . . . . H.A 
B|---------------------------------------------------| 
F|---------------------------------------------------| 
D|---------------------------------------------------| 
A|-0-0-7-7-0-0-0-0-5-5-8-8-5~~-----------------------| 
E|---------------------------------------------------| 
A|---------------------------------------------------| 

(Guitarra 2) 
   P.M.. . . . . . . . .  .  . . . . 
B|---------------------------------------------------| 
F|---------------------------------------------------| 
D|---------------------------------------------------| 
A|---------------------------------------------------| 
E|-----8-8-5-5-5-5-6-6-10-10-5-5-8-8-----------------| 
A|-0-0-----------------------------------------------| 
   P.M.. . . . . . . . .  .  H.A 
B|---------------------------------------------------| 
F|---------------------------------------------------| 
D|---------------------------------------------------| 
A|---------------------------------------------------| 
E|-----8-8-5-5-5-5-6-6-10-10-5~~---------------------| 
A|-0-0-----------------------------------------------| 

   P.M. . .  . .  . .  . . . .  . . . 
B|---------------------------------------------------| 
F|---------------------------------------------------| 
D|---------------------------------------------------|  (3x) 
A|---------------------------------------------------| 
E|---------------------------------------------------| 
A|-0-0--0-0--0-0--0-0--0-0-0-0--0-0-0-2b3r2----------| 
The limits of the dead! (2x) 

   P.M. . .  . .  . .  . . . . 
B|---------------------------------------------------| 
F|---------------------------------------------------| 
D|---------------------------------------------------| 
A|---------------------------------------------------| 
E|---------------------------------------------------| 
A|-0-0--0-0--0-0--0-0--0-0-0-0-----------------------|
  

top cifras slipknot
top cifras heavy metal
ver mais cifras desse artista

letras do(a) Slipknot

Top cifras » Top artistas »
Anuncie no Cifras Termos de Uso Política de Privacidade Material de DivulgaçãoFale Conosco
Petaxxon Comunicação Online
Cifras.com.br - Melhor e mais completo site de cifras e tablaturas do Brasil
Mais de 1 milhão de cifras cadastradas desde 2003
As informações contidas no Cifras.com.br são colaborações de seus usuários e podem conter erros, sendo assim, não se responsabiliza sobre nenhuma destas.
R7 Música
close
 
redimensionar