» Cifras.com.br » Letras de músicas » Notícias » TV Cifras » Guitar Pro » Gospel

Início » NuMetal » System Of A Down » Mezmerize »

B.Y.O.B.

System Of A Down

B.Y.O.B.

System Of A Down Escute esta e outras músicas enquanto navega no Cifras

Ano: 2005 - Album: Mezmerize

Autor:

Tom

Formatação

colunas A+ A- cores

Nível

Expert

Nível: Expert

Transcrição

anônimo


  
Introdução 


 eb|-------------------------------------------------------------| 
 Bb|-------------------------------------------------------------| 
 Gb|-------------------------------------------------------------| 
 Db|--7-0--0--0--0--0--0--0--0--7--0--0--8--0--0--7--0--0--------| 
 Ab|-------------------------------------------------------------| 
 Db|-------------------------------------------------------------| (3x) 



 eb|-------------------------------------------------------------| 
 Bb|-------------------------------------------------------------| 
 Gb|-------------------------------------------------------------| 
 Db|-7--0--0--8--0--0--7--0--0--7--0--0--8--0--0--7--0--0--------| 
 Ab|-------------------------------------------------------------| 
 Db|-------------------------------------------------------------| (3x) 



 eb|-------------------------------------------------------------| 
 Bb|-------------------------------------------------------------| 
 Gb|-------------------------------------------------------------| 
 Db|--------------------------------------------------9--10--12--| 
 Ab|--------------------------------------------------7--8---10--| 
 Db|-0-0-7-0-0-8-0-0-7-0-0-8-0-0-7-0-0-0-7-0-0-8-0-0-------------| 



 eb|-------------------------------------------------------------| 
 Bb|-------------------------------------------------------------| 
 Gb|-------------------------------------------------------------| 
 Db|--------------------------------------------------12--10--9--| 
 Ab|--------------------------------------------------10--8---7--| 
 Db|-0-0-7-0-0-8-0-0-7-0-0-8-0-0-7-0-0-0-7-0-0-8-0-0-------------| (2x) 



 Verso 1 


 eb|-------------------------------------------------------------| 
 Bb|-------------------------------------------------------------| 
 Gb|-------------------------------------------------------------| 
 Db|----------------------------------------------------------10-| 
 Ab|----------------------------------------------------------8--| 
 Db|-7--0--0--8--0--0--7--0--0--8--0--0--7--0--0--8--0--0--7-----| 



 eb|-------------------------------------------------------------| 
 Bb|-------------------------------------------------------------| 
 Gb|-------------------------------------------------------------| 
 Db|--------------------------------------12---10---9------------| 
 Ab|--------------------------------------10---8----7------------| 
 Db|-7--0--0--8--0--0--7--0--0--8--0--0--------------------------| (2x) 




 eb|-------------------------------------------------------------| 
 Bb|-------------------------------------------------------------| 
 Gb|-------------------------------------------------------------| 
 Db|-------------------------------------------------------------| 
 Ab|-------------------------------------------------------------| 
 Db|--7-0-0-8-0-0-7-0-0-8-0-0-7-0-0-8-0-0-7-0-0-8-0-0------------| 




 eb|-------------------------------------------------------------| 
 Bb|-------------------------------------------------------------| 
 Gb|-------------------------------------------------------------| 
 Db|-----------------------------------------10------------------| 
 Ab|-----------------------------------------8-------------------| 
 Db|--7-0-0-8-0-0-7-0-0-8-0-0-7-0-0-8-0-0-7----------------------| 




 eb|-------------------------------------------------------------| 
 Bb|-------------------------------------------------------------| 
 Gb|-------------------------------------------------------------| 
 Db|-------------------------------------------------------------| 
 Ab|-------------------------------------------------------------| 
 Db|--7-0-0-8-0-0-7-0-0-8-0-0-7-0-0-8-0-0-7-0-0-8-0-0------------| 




 eb|-------------------------------------------------------------| 
 Bb|-------------------------------------------------------------| 
 Gb|-------------------------------------------------------------| 
 Db|-------------------------------------------------------------| 
 Ab|----------------------------5---3---2---3---2---0------------| 
 Db|--7-0-0-8-0-0-7-0-0-8-0-0---5---3---2---3---2---0------------| 




 Pré-Refrão 1 2 e 3 



 eb|-------------------------------------------------------------| 
 Bb|-------------------------------------------------------------| 
 Gb|-------------------------------------------------------------| 
 Db|------------------------------------------5--5------0-3p2----| 
 Ab|-5--3--2--3--2--0----0----0-2-3-5-3-2-0---3--3--0-3-------5--| 
 Db|-5--3--2--3--2--0----0----0-2-3-5-3-2-0----------------------| 




 eb|-------------------------------------------------------------| 
 Bb|-------------------------------------------------------------| 
 Gb|-------------------------------------------------------------| 
 Db|-------------------------------------------------------------| 
 Ab|-3--2--0----0----0-5-7-8-7-5-3-5-3-2---3b4r3b4r3b4r3---------| 
 Db|-3--2--0----0----0-5-7-8-7-5-3-5-3-2-------------------------| 




 Refrão 1 e 2 



 eb|-------------------------------------------------------------| 
 Bb|-------------------------------------------------------------| 
 Gb|-------------------------5-5-5---5---5-5--5-5----------------| 
 Db|-------------------------3-3-3---3---3-3--3-3----------------| 
 Ab|-0-0-0---0---0-0--0-0-0--------------------------0-0-0---0---| 
 Db|-0-0-0---0---0-0--0-0-0--------------------------0-0-0---0---| 




 eb|-------------------------------------------------------------| 
 Bb|-------------------------------------------------------------| 
 Gb|-------------------------------------------------------------| 
 Db|-------------------------------------------------------------| 
 Ab|-0-5-7-8-7-5-3-5-3-2-------3b4r3b4r3b4r3---------------------| 
 Db|-0-5-7-8-7-5-3-5-3-2-----------------------------------------| (2x) 



 Verso 2 e 3 





 eb|-------------------------------------------------------------| 
 Bb|-------------------------------------------------------------| 
 Gb|-------------------------------------------------------------| 
 Db|-------------------------------------------------------------| 
 Ab|-------------------------------------------------------------| 
 Db|--7-0-0-8-0-0-7-0-0-8-0-0-7-0-0-8-0-0-7-0-0-8-0-0------------| 




 eb|-------------------------------------------------------------| 
 Bb|-------------------------------------------------------------| 
 Gb|-------------------------------------------------------------| 
 Db|-----------------------------------------10------------------| 
 Ab|-----------------------------------------8-------------------| 
 Db|--7-0-0-8-0-0-7-0-0-8-0-0-7-0-0-8-0-0-7----------------------| 




 eb|-------------------------------------------------------------| 
 Bb|-------------------------------------------------------------| 
 Gb|-------------------------------------------------------------| 
 Db|-------------------------------------------------------------| 
 Ab|-------------------------------------------------------------| 
 Db|--7-0-0-8-0-0-7-0-0-8-0-0-7-0-0-8-0-0-7-0-0-8-0-0------------| 




 eb|-------------------------------------------------------------| 
 Bb|-------------------------------------------------------------| 
 Gb|-------------------------------------------------------------| 
 Db|----------------------------12---10---9----------------------| 
 Ab|----------------------------10---8----7----------------------| 
 Db|--7-0-0-8-0-0-7-0-0-8-0-0------------------------------------| 



 eb|-------------------------------------------------------------| 
 Bb|-------------------------------------------------------------| 
 Gb|-------------------------------------------------------------| 
 Db|----------------------------------------------------------10-| 
 Ab|----------------------------------------------------------8--| 
 Db|-7--0--0--8--0--0--7--0--0--8--0--0--7--0--0--8--0--0--7-----| 



 eb|-------------------------------------------------------------| 
 Bb|-------------------------------------------------------------| 
 Gb|-------------------------------------------------------------| 
 Db|--------------------------------------12---10---9------------| 
 Ab|--------------------------------------10---8----7------------| 
 Db|-7--0--0--8--0--0--7--0--0--8--0--0--------------------------| 





 eb|-------------------------------------------------------------| 
 Bb|-------------------------------------------------------------| 
 Gb|-------------------------------------------------------------| 
 Db|----------------------------------------------------------10-| 
 Ab|----------------------------------------------------------8--| 
 Db|-7--0--0--8--0--0--7--0--0--8--0--0--7--0--0--8--0--0--7-----| 




 eb|-------------------------------------------------------------| 
 Bb|-------------------------------------------------------------| 
 Gb|-------------------------------------------------------------| 
 Db|-------------------------------------------------------------| 
 Ab|----------------------------5---3---2---3---2---0------------| 
 Db|--7-0-0-8-0-0-7-0-0-8-0-0---5---3---2---3---2---0------------| 




 Interludio 1   



 eb|-------------------------------------------------------------| 
 Bb|-------------------------------------------------------------| 
 Gb|-------------------------------------------------------------| 
 Db|-------------------------------------------------------------| 
 Ab|--5/7-7-7-7-7-7-7-10-10-10-8-8-8-7-7-------------------------| 
 Db|--5/7-7-7-7-7-7-7-10-10-10-8-8-8-7-7-------------------------| (8x) 




 eb|-------------------------------------------------------------| 
 Bb|-------------------------------------------------------------| 
 Gb|-------------------------------------------------------------| 
 Db|-------------------------------------------------------------| 
 Ab|--12-12-12-12-12-12-12-12-8-8-8-8-8-8-8-8-0-0-0-0-0-0-0-0----| 
 Db|--12-12-12-12-12-12-12-12-8-8-8-8-8-8-8-8--------------------| 




 eb|-------------------------------------------------------------| 
 Bb|-------------------------------------------------------------| 
 Gb|-------------------------------------------------------------| 
 Db|-------------------------------------------------------------| 
 Ab|--7--0--0--8--0--0--7--0--0----------------------------------| 
 Db|-------------------------------------------------------------| (4x) 




 eb|-------------------------------------------------------------| 
 Bb|-------------------------------------------------------------| 
 Gb|-------------------------------------------------------------| 
 Db|-------------------------------------------------------------| 
 Ab|--7-0-0-0-0-0-0-0-7--0--0--8--0--0--7--0---------------------| 
 Db|-------------------------------------------------------------| 



 eb|-------------------------------------------------------------| 
 Bb|-------------------------------------------------------------| 
 Gb|-------------------------------------------------------------| 
 Db|-------------------------------------------------------------| 
 Ab|--7-0-0-0-0-0-0-0-7--0--0--8--0--0--7------------------------| 
 Db|-------------------------------------------------------------|  



  Refrão 3 




 eb|-------------------------------------------------------------| 
 Bb|-------------------------------------------------------------| 
 Gb|-------------------------5-5-5---5---5-5--5-5----------------| 
 Db|-------------------------3-3-3---3---3-3--3-3----------------| 
 Ab|-0-0-0---0---0-0--0-0----------------------------0-0-0---0---| 
 Db|-0-0-0---0---0-0--0-0----------------------------0-0-0---0---| 



 eb|-------------------------------------------------------------| 
 Bb|-------------------------------------------------------------| 
 Gb|-------------------------------------------------------------| 
 Db|-------------------------------------------------------------| 
 Ab|-0-5-7-8-7-5-3-5-3-2-------3b4r3b4r3b4r3---------------------| 
 Db|-0-5-7-8-7-5-3-5-3-2-----------------------------------------| (3x) 




 eb|-------------------------------------------------------------| 
 Bb|-------------------------------------------------------------| 
 Gb|-------------------------5-5-5---5---5-5--5-5----------------| 
 Db|-------------------------3-3-3---3---3-3--3-3----------------| 
 Ab|-0-0-0---0---0-0--0-0----------------------------0-0-0---0---| 
 Db|-0-0-0---0---0-0--0-0----------------------------0-0-0---0---| 




 Interludio 2 





 eb|-------------------------------------------------------------| 
 Bb|-------------------------------------------------------------| 
 Gb|-------------------------------------------------------------| 
 Db|-------------------------------------------------------------| 
 Ab|--12-12-12-12-12-12-12-12-8-8-8-8-8-8-8-8-0-0-0-0-0-0-0-0----| 
 Db|--12-12-12-12-12-12-12-12-8-8-8-8-8-8-8-8--------------------| 



 eb|-------------------------------------------------------------| 
 Bb|-------------------------------------------------------------| 
 Gb|-------------------------------------------------------------| 
 Db|-------------------------------------------------------------| 
 Ab|--7--0--0--8--0--0--7--0--0----------------------------------| 
 Db|-------------------------------------------------------------| (4x) 



 eb|-------------------------------------------------------------| 
 Bb|-------------------------------------------------------------| 
 Gb|-------------------------------------------------------------| 
 Db|-------------------------------------------------------------| 
 Ab|--7--0--0--8--0--0--7--0--0----------------------------------| 
 Db|-------------------------------------------------------------| 



 eb|-------------------------------------------------------------| 
 Bb|-------------------------------------------------------------| 
 Gb|-------------------------------------------------------------| 
 Db|-------------------------------------------------------------| 
 Ab|-7-0-0-8-0-0-7-0-0-7-0-0-8-0-0-7-0-0-7-0-0-8-0-0-7-0-0-7--12\| 
 Db|-------------------------------------------------------------|  




 eb|-------------------------------------------------------------| 
 Bb|-------------------------------------------------------------| 
 Gb|-------------------------------------------------------------| 
 Db|-------------------------------------------------------------| 
 Ab|--0-0-0-0-0-0-0-0-7--0--0--8--0--0--7--0---------------------| 
 Db|-------------------------------------------------------------| 




 eb|-------------------------------------------------------------| 
 Bb|-------------------------------------------------------------| 
 Gb|-------------------------------------------------------------| 
 Db|-------------------------------------------------------------| 
 Ab|--7-0-0-0-0-0-0-0-7--0--0--8--0--0--7--0---------------------| 
 Db|-------------------------------------------------------------| (6x) 




 eb|-------------------------------------------------------------| 
 Bb|-------------------------------------------------------------| 
 Gb|-------------------------------------------------------------| 
 Db|-------------------------------------------------------------| 
 Ab|-7-0-0-8-0-0-7-0-0-7-0-0-8-0-0-7-----------------------------| 
 Db|-------------------------------------------------------------| 





  

Conseguiu tocar essa música? Ficou legal? Então, mostre para todo mundo no Você Canta, receba notas e comentários. Cante agora

Top cifras » Top artistas »
Anuncie no Cifras Termos de Uso Política de Privacidade Material de DivulgaçãoFale Conosco
Petaxxon
Cifras.com.br - Melhor e mais completo site de cifras e tablaturas do Brasil
Mais de 1 milhão de cifras cadastradas desde 2003
As informações contidas no Cifras.com.br são colaborações de seus usuários e podem conter erros, sendo assim, não se responsabiliza sobre nenhuma destas.
R7 Música
close
 
redimensionar