» Cifras.com.br » Letras de músicas » Notícias » TV Cifras » Guitar Pro » Gospel

Início » Rock'n Roll » The Beatles » The Beatles 1 »

Day Tripper

The Beatles

Day Tripper

The Beatles Escute esta e outras músicas enquanto navega no Cifras

Ano: 1965 - Album: The Beatles 1

Autor: (Lennon / McCartney)

Tom

Formatação

colunas A+ A- cores

Nível

Iniciante

Nível: Iniciante

Transcrição

enviada por stefanisbored


corrigida por Acelot

  
Intro: 

e|----------------------------------------------------| 
B|----------------------------------------------------| 
G|----------------------------------------------------| 
D|----------------------2----0-------4--------0----2--| 
A|------------------2------------2-------2------------| 
E|----0----3----4-------------------------------------| (5x) 

Parte A: 

Base: E E7 

e|----------------------------------------------------| 
B|----------------------------------------------------| 
G|----------------------------------------------------| 
D|----------------------2----0-------4--------0----2--| 
A|------------------2------------2-------2------------| 
E|----0----3----4-------------------------------------| (2x) 

e|----------------------------------------------------| 
B|----------------------------------------------------| 
G|------------------------2----0-------4-------0----2-| 
D|--------------------2------------2-------2----------| 
A|------0----3----4-----------------------------------| 
E|----------------------------------------------------| 

e|----------------------------------------------------| 
B|----------------------------------------------------| 
G|----------------------------------------------------| 
D|----------------------2----0-------4--------0----2--| 
A|------------------2------------2-------2------------| 
E|----0----3----4-------------------------------------| 


Chorus: F#7 A7 G#7 C#m7 B7 

e|------------------------------------------------------------| 
B|------------------------------------------------------------| 
G|------------------------------------------------------------| 
D|------------------------------------------------------------| 
A|------------------------------0-----------------------------| 
E|-2---2-2-2-2-2-2--2-2-2-2-0h2---2-2--2-2-2-2-2-2-2-2--0h2-2-| 

e|- 
B|--------------------------------------------------9--9--9--9--| 
G|--------------------------------------------------10-10-10-10-| 
D|--------------------------------------------------9--9--9--9--| 
A|---------------------------------------6----------11-11-11-11-| 
E|-2-2-0h2-2-2-2/5-5-5-5-5-5-5-5-4-4-4-4-------4/9--9--9--9--9--| 

e|------------------| 
B|-7--7--7--7--7--7-| 
G|-8--8--8--8--8--8-| 
D|-7--7--7--7--7--7-| 
A|-9--9--9--9--9--9-| 
E|-7--7--7--7--7--7-| 

e|--------------------------------------------------------------| 
B|--------------------------------------------------------------| 
G|--------------------------------------------------------------| 
D|--------------------------------------------------------------| 
A|--------------------------------------------------------------| 
E|-2--2-2-2-2-2-2--0h2-2-2-2-0h2-2-2-2--2--2-2-2-2-2-2--2-2-2-2-| 

e|--------------------------------------------------------------| 
B|--------------------------------------------------------------| 
G|--------------------------------------------------------------| 
D|--------------------------------------------------------------| 
A|-------------------------------------------------------------9| 
E|-2-2-2-2-2-2-2/5---5-5-5-5-5-5-4--4-4-4-4-4-4-9--9-9-9-9-9-9-7| 


Base Solo: 

e|-------------------------------------------------------------| 
B|--------------------------------------2----------------------| 
G|----------------------4-----2----------------------2--4------| 
D|---4-----0h1-----4---------------4-----------4---------------| 
A|---2---------------------------------------------------------| 
E|-------------------------------------------------------------| (3x) 

Solo: B7  B7(4)  

e|--------------------5-------------------10----10-12-12b14-14r12---10---| 
B|-----3b4rb3---3-5b7---7rb5-3------12-12----12------------------------12| 
G|-4-4--------4----------------4-----------------------------------------| 
D|-----------------------------------------------------------------------| 
A|-----------------------------------------------------------------------| 
E|-----------------------------------------------------------------------| 

3º Guitar Solo: 

e|------------------------------------------------------------| 
B|---------------------------------------------------------7--| 
G|-------------------------------------------6----8----9------| 
D|----------------------------6----7----9---------------------| 
A|--------------6---7----9------------------------------------| 
E|---7-----9--------------------------------------------------| 

3º Chorus: 

e|-------------------------------------------------------| 
B|-------------------------------------------------------| 
G|-------------------------------------------------------| 
D|-------------------------------------------------------| 
A|--------------------------------4\2-0------------------| 
E|-2---2-2-2-2-2-2--0h2-2-2-2-2-2----------2-2-0h2-2-2-2-| 

e|---------------------------------------------------------------------| 
B|---------------------------------------------------------------------| 
G|---------------------------------------------------------------------| 
D|---------------------------------------------------------------------| 
A|----------------------------------------11-11-11-11-11-9---9--9--9--9| 
E|-2-2-2-2/5---5-5-5-5-5-5-4--4-4-4-4-4-4-9--9--9--9--9--7---7--7--7--7| 







  

Top cifras » Top artistas »
Anuncie no Cifras Termos de Uso Política de Privacidade Material de DivulgaçãoFale Conosco
Petaxxon Comunicação Online
Cifras.com.br - Melhor e mais completo site de cifras e tablaturas do Brasil
Mais de 1 milhão de cifras cadastradas desde 2003
As informações contidas no Cifras.com.br são colaborações de seus usuários e podem conter erros, sendo assim, não se responsabiliza sobre nenhuma destas.
R7 Música
close
 
redimensionar