Cifras e Tablaturas
The Hollies

The Hollies

Long Cool Woman Tablatura

Cifras Cancelar Versão de Impressão

The Hollies - Long Cool Woman

fixar na tela  
Exibindo: vídeo-aula ver clipes redimensionar
d---------0-------4-----2-----0-----0-----0-----0-----0-----0--0--0-| 2x 

     *Like here ^                             *And here ^ 

Now play a simple E major chord, periodically putting your pinky on the A string, 
4th fret, and lifting your ring finger (This is a great way to build up your pinky): 

e---| |--------------| 
b---| |--------------| 
g---| |--------------| 
d---| |----0-----2-2-| 8x (Until singing, better to strum while you sing :)  
a-2-| |-4--2--4--2-2-| 
e-0-| |-0-----0------| 

Saturday night I was downtown 
G               A E 
Working for the FBI 
Sitting in a nest of bad men 
G              A      E 
Whisky bottles piling high 
Bootlegging boozer on the west side 
G              A             E 
Full of people who are doing wrong 
Just about to call up the D.A. man 
G                       A         E 
When I heard this woman singing a song 

A pair of 45's made me open my eyes 
My temperature started to rise 
B          A 
She was a long cool woman in a black dress 
A      G              E 
Just a 5'9, beautiful tall 
With just one look I was a bad mess 
A         G                      E            
'cos that long cool woman had it all 

e-------------------------------| |--------------------------------------| 
b-------------------------------| |----------------------------------0---| 
g-1-1-1---------------------0h1-| |----------------------------------0h1-| 
d--------0-----0--------0-------| |-2--2--2--2-------0-----------0-------|3x 
a-----------2-------0h2---------| |-------------0h2--2-------0h2-2-------| 
e-0--------------0--------0-0---| |----0--0--0----------0----------0-0---| 

e---|  |--------------| 
b---|  |--------------| 
g---|  |--------------| 
d---|  |----0-----2-2-|8x again (Yell out "wooo" after 4x) 
a-2-|  |-4--2--4--2-2-| 
e-0-|  |-0-----0------| 

Repeat the E, G, A over all the rest of the lyrics: 

I saw her headin' to the table 
Well a tall walking big black cat 
When charlie said I hope that you're able boy 
Well I'm telling you she knows where it's at 
Well suddenly we heard the sirens 
And everybody started to run 
A jumping out of doors and tables 
Well I heard somebody shooting a gun 

Well the da was pumping my left hand 
And then she was a-holding my right 
Well I told her don't get scared 
'cos you're gonna be spared 
Well I've gotta be forgiven 
If I wanna spend my living 
With a long cool woman in a black dress 
Just a 5'9 beautiful tall 
Well, with just one look I was a bad mess 
'cos that long cool woman had it all 


cifra enviadasem correções
enviado porenviada por:ojkrem
top 5 | the hollies
top rock'n roll
Outras músicas do artista letras do(a) The Hollies
Top cifras »Top artistas »
Petaxxon Comunicação Online - Melhor e mais completo site de cifras e tablaturas do Brasil
Mais de 1 milhão de acordes de músicas cadastradas desde 2003
As informações contidas no nosso site são colaborações de seus usuários e podem conter erros, sendo assim, não nos responsabilizamos sobre nenhuma destas.
Cor dos acordes:

Cor da letra: