» Cifras.com.br » Letras de músicas » Notícias » TV Cifras » Guitar Pro » Gospel
Logo Cifras.com.br

Início » Sertanejo » Tonico e Tinoco » »

Moreninha linda (tablatura)

Tonico e Tinoco

Moreninha linda (tablatura)

Tonico e Tinoco Escute esta e outras músicas enquanto navega no Cifras

Autor:

Tom

Formatação

colunas A+ A- cores

Instrumento

cifras tablaturaver outros instrumentos

Nível

Iniciante

Nível: Iniciante

Transcrição

enviada por Danyllo Rosa


  Tablatura para VIOLA 
 
Introdução: 
 
E-----14-----12-----14-----12-----10-----9-----10-----9-----10-----12-----10-----9----7----5-- 
B----/--\---/--\---/--\---/--\---/--\---/-\---/--\---/-\---/--\---/--\---/--\---/-\---/-\--|-- 
G#--13--13-12--12-13--13-12--12-10--10-8---8-10--10-8---8-10--10-12--12-10--10-8---8-6---6-5-- 
E--------------------------------------------------------------------------------------------- 
B--------------------------------------------------------------------------------------------- 
 
E-----14-----12---14---12---10---9---10---9---10---12--10---9--8-7-5-------------------------- 
B----/--\---/--\-/--\-/--\-/--\-/-\-/--\-/-\-/--\-/--\-/-\-/---|-|-|-------------------------- 
G#--13--13-12--13---12---10----8--10----8--10---12---10---8----7-6-5-------------------------- 
E--------------------------------------------------------------------------------------------- 
B--------------------------------------------------------------------------------------------- 
 
Meu coração ta pizado como uma flor que mucha e cai 
 
E---14-14-14-14-14-12-12---12-12-12-14-12-10-9-------- 
B----------------------------------------------------- 
G#--13-13-13-13-13-12-12---12-12-12-13-12-10-8-------- 
E----------------------------------------------------- 
B-----------------------------------------------------     (Solo 1) 
 
Pizado pelo desprezo, do amor quando desfaz 
 
E---10-10-10-10-10-9-9-7---9-9-9-10-9-7-5------------- 
B----------------------------------------------------- 
G#--10-10-10-10-10-8-8-6---8-8-8-10-8-6-5------------- 
E----------------------------------------------------- 
B-----------------------------------------------------     (Solo 2) 
 
Deixando a triste lembrança adeus para nunca mais 
 
E---10-10-10-10-10-9-9^12-12---12-14-12-10-9-7-5------ 
B----------------------------------------------------- 
G#--10-10-10-10-10-8-8^12-12---12-13-12-10-8-6-5------ 
E----------------------------------------------------- 
B-----------------------------------------------------     (Solo 3) 
 
Refrão: 
 
Moreninha linda do meu bem querer,é triste a saudade longe de você 
 
E---14-14-14-12-12-12--12-14-12-10-9--9-10-10-9-12-12--12-10-9-7-5------ 
B----------------------------------------------------------------------- 
G#--13-13-13-12-12-12--12-13-12-10-8--8-10-10-8-12-12--12-10-8-6-5------ 
E----------------------------------------------------------------------- 
B-----------------------------------------------------------------------      
 
Introdução: 
 
Pro amor nascer sozinho, não é preciso plantar     (Solo 1) 
A paixão nascer no peito, farcidade no oiá         (Solo 2) 
Você nasceu para outro, eu nasci pra ti amar       (Solo 3) 
 
Refrão: 
Introdução: 
 
Eu tenho meu canarinho que canta quando me vê      (Solo 1) 
Eu canto por ter tristeza, canário por padecer     (Solo 2) 
Da saudade da floresta, e eu de saudade de você    (Solo 3) 
 
Refrão:      Introdução: ....fim 
 
_________________________________________________________________________ 
(Solada por Nestor - Tirada por Danyllo Rosa - danyllo_rosa@ibest.com.br) 
 

  

top cifras tonico e tinoco
top cifras sertanejo
ver mais cifras desse artista var letras desse artista
Top cifras » Top artistas »
Anuncie no Cifras Termos de Uso Política de Privacidade Material de DivulgaçãoFale Conosco
Petaxxon Comunicação Online
Cifras.com.br - Melhor e mais completo site de cifras e tablaturas do Brasil
Mais de 1 milhão de cifras cadastradas desde 2003
As informações contidas no Cifras.com.br são colaborações de seus usuários e podem conter erros, sendo assim, não se responsabiliza sobre nenhuma destas.
R7 Música
close
 
redimensionar