» Cifras.com.br » Letras de músicas » Notícias » TV Cifras » Guitar Pro » Gospel

Início » Gospel » Toque no Altar » »

Tua graça me basta (ver. 3)

Toque no Altar

Tua graça me basta (ver. 3)

Toque no Altar Escute esta e outras músicas enquanto navega no Cifras

Autor:

Formatação

colunas A+ A- cores

Nível

Iniciante

Nível: Iniciante

Transcrição

enviada por wellinguitar


  Solo do Toque no Altar 

   E/G# A9    E/G#   Fm7  C#m7 
e|--------------------------------------------| 
B|4h5h4---------------------------------------|   
G|---------4-4h6-6h4--------------6-----------|   
D|-----------------------6-6/7-7/9----6-------|   
A|--------------------------------------------|   
E|--------------------------------------------|   


     B            A9      E/G#    F#m7   
e|-11b11---------------------12-16-16b--------|     
B|---------12-12/14-14/16---------------------|
G|--------------------------------------------|   
D|--------------------------------------------|   
A|--------------------------------------------|   

e|--------------------------------|   
B|--------------------------------|   
G|-----9-11-11--------------------|   
D|---9----------------------------|   
A|9-------------------------------|   
E|----------------13b-------------| 
  

top cifras toque no altar
top cifras gospel
ver mais cifras desse artista var letras desse artista
Top cifras » Top artistas »
Anuncie no Cifras Termos de Uso Política de Privacidade Material de DivulgaçãoFale Conosco
Petaxxon Comunicação Online
Cifras.com.br - Melhor e mais completo site de cifras e tablaturas do Brasil
Mais de 1 milhão de cifras cadastradas desde 2003
As informações contidas no Cifras.com.br são colaborações de seus usuários e podem conter erros, sendo assim, não se responsabiliza sobre nenhuma destas.
R7 Música
close
 
redimensionar